Your One-Stop Source For
Music Lyrics
Bass and Guitar Tabs
and More...
>Music Lyrics Bass and Guitar Tabs

 

New Found Glory

The Tabs Are Below

Learn To Read Tab
Chords Handbook
Corrections & Additions
Get Official Tab
New Found Glory tabs @ 911Tabs

Artist: New Found Glory

Song: 3rd and Long

Album: Nothing Gold Can Stay

Tabbed By: Budah124

 

~let ring

#strum x12

 

Intro:

E:----------------------

A:--0~---4~---0~---5~---

D:----------------------

G:----------------------

 

Riff:1

E:-----------------------------------------------

A:--4444-------0000-------5555-------0000--------

D:--------4-5--------5-4--------4-5--------5-4---

G:-----------------------------------------------

 

Riff:2

E:-------------------------------------

A:--4444--------0000--------55555555---

D:--------4-5---------5-4--------------

G:-------------------------------------

 

Riff:3

E:--------------------------------------------------------------------

A:--55555---44444---00000---777---4~---55555---44444---00000---777--5~

D:--------------------------------------------------------------------

G:--------------------------------------------------------------------

 

Riff:4

E:-----------------------------------------------------

A:---0-4--5#--0-5--4#--0-4--5#--00000--55555--7-5---4--

D:------------------------------------------------5----

G:-----------------------------------------------------

 

Riff:5

E:---------------------------------------

A:---000-4~--000-------000-4~--000-------

D:----------------4-5---------------5-4--

G:---------------------------------------

 

Riff:6

E:------------------------

A:---000-5-4-0000---------

D:----------------5-4-0---

G:------------------------

 

Riff:7

E:-------------------------------------------------------

A:---0-4--5#--0-5--4#--0-4--5#--00000--55555--77777777---

D:-------------------------------------------------------

G:-------------------------------------------------------

 

 

Song Order

 

Riff:1x3

Riff:2x1

Riff:3x1

Riff:1x3

Riff:2x1

Riff:3x1

Riff:4x1

Riff:5x4

Riff:6x9

Riff:7x1

Riff:5x4

 

That's it!

Corrections or Comments E-mail me at Budah124@aol.com

 

Return to my New Found Glory bass tabs page

The Tablature is Copyright its respective owners.

Sign Up For My Newsletter
Subscribe | Unsubscribe

Site Map | Disclaimer | Privacy Policy | Media Kit | Submissions/Corrections

Website © 2000-2014 mattsmusicpage.com. All rights reserved.

Legal & DMCA: Matt's Music Page has been providing lyrics and tabs in a legal way, paying royalties each year to a few organizations. Then, all lyrics and tabs were removed from the site. Now, there's a new owner to the site, which purchased it August 26, 2014, and he is in negotiation to obtain licensing from BMI at the moment. If you have a specific DMCA request -- please do not hesitate to contact me via the contact button on top. I will do my very best to keep this site fully legal.

Get our toolbar!

 

Solid Brass Willard Banjo Eagle New Part
$18.99
Solid Brass Willard Banjo Eagle New Part picture


American Style Howard Single Weight Driven Movement pend suspenson Banjo Clock
$29.99
American Style Howard  Single Weight Driven Movement pend suspenson Banjo  Clock picture


Antique WALTHAM Banjo Clock, 8 Day Time Only
$700.0
Antique WALTHAM Banjo Clock, 8 Day Time Only picture


Vintage Banjo Style Airguide Barometer Thermometer Humidty Faux Wood Plastic
$10.0
Vintage Banjo Style Airguide Barometer Thermometer Humidty Faux Wood Plastic picture


Dueling banjo snowman by Mr. Christmas
$19.99
Dueling banjo snowman by Mr. Christmas picture