Your One-Stop Source For
Music Lyrics
Bass and Guitar Tabs
and More...
>Music Lyrics Bass and Guitar Tabs

 

New Found Glory

The Tabs Are Below

Learn To Read Tab
Chords Handbook
Corrections & Additions
Get Official Tab
New Found Glory tabs @ 911Tabs

Song: 2's and 3's

Artist: A New Found Glory

Album: Nothing Gold Can Stay

Bassist: Ian

Tabbed By: EvilMilenko (evilmilenko@bolt.com)

 

Standard tuning

1-G 3-A

2-D 4-E

**play w/ pick**

 

intro

G|--------|

D|--------|

A|-X-X-X-X|

E|--------|

 

 

chorus (x2)

G|-------------------------------------------7-7-5--|

D|---------7---------------8--7-7--7-7-7--8---------|

A|8-8--8-8----10-10--10-10--------------------------|

E|--------------------------------------------------|

 

G|/10-10--10-10-10--9-9-9-9-9-7-7--7-7-7---7-5-|

D|---------------------------------------8-----|

A|---------------------------------------------|

E|---------------------------------------------|

 

 

post-chorus

G|---------------------------------------------|

D|---------------------------------------------|

A|---------------------------------------------|

E|6-----8-8-8-8--6---8-8-8-8---6----8-8-8-8---6|

 

 

verse

G|--------------------------------|

D|--------------------------------|

A|8888-88-7777-77-----------------|

E|----------------8888-88--6666-66|

 

**play chorus x2**

**play post-chorus**

 

first part of second verse

G|-----|-------------------------------------|

D|-----|-------------------------------------|

A|-----|5-5-5-5/8888--3-3-3/555--1-1-1-1/333-|

E|--1--|-------------------------------------|

 

second part of second verse (x3)

G|--------------------------------------------------|

D|--------------------------------------------------|

A|------1-1-1---5-5-5-5/8888-3-3-3-3/555-1-1-1-1/333|

E|1-1-1---------------------------------------------|

 

interlude

G|-----|

D|-----|

A|-----|

E|--1--|

 

**play verse x4**

**play chorus x2**

**play post-chorus**

**play second part of second verse x5**

 

ending

G|-----------------------------------------------|

D|-----------------------------------------------|

A|------1-1-1--5-5-5-5/888--3---5---1--0h1p0-----|

E|1-1-1--------------------------------------3--1|

 

That's it! Enjoy!

 

 

 

Return to my New Found Glory bass tabs page

The Tablature is Copyright its respective owners.

Sign Up For My Newsletter
Subscribe | Unsubscribe

Site Map | Disclaimer | Privacy Policy | Media Kit | Submissions/Corrections

Website © 2000-2014 mattsmusicpage.com. All rights reserved.

Legal & DMCA: Matt's Music Page has been providing lyrics and tabs in a legal way, paying royalties each year to a few organizations. Then, all lyrics and tabs were removed from the site. Now, there's a new owner to the site, which purchased it August 26, 2014, and he is in negotiation to obtain licensing from BMI at the moment. If you have a specific DMCA request -- please do not hesitate to contact me via the contact button on top. I will do my very best to keep this site fully legal.

Get our toolbar!

 

1968 "The Steve Miller Band Uses SUNN Amplifiers Exclusively" Vintage Print Ad
$9.95
1968


1970 BALDWIN Exterminator Amplifier "Ultimate Monster" Original Vintage Ad
$9.95
1970 BALDWIN Exterminator Amplifier


Select-A-Tenna, AM Radio Antenna Signal Booster, Amplifier, Vintage 70s
$18.89
Select-A-Tenna, AM Radio Antenna Signal Booster, Amplifier, Vintage 70s picture


1968 GRETSCH The Sound of “Fury" Piggyback Amplifier Vintage Print Ad
$9.95
1968 GRETSCH The Sound of “Fury


1931 Press Photo Man with Microphone & Amplifier for Remote Radio Broadcasts
$30.0
1931 Press Photo Man with Microphone & Amplifier for Remote Radio Broadcasts picture