Your One-Stop Source For
Music Lyrics
Bass and Guitar Tabs
and More...
>Music Lyrics Bass and Guitar Tabs

 

New Found Glory

The Tabs Are Below

Learn To Read Tab
Chords Handbook
Corrections & Additions
Get Official Tab
New Found Glory tabs @ 911Tabs

Band: New Found Glory

Song: Anniversary

Good song over seas

 

e|-----------------------|

B|-----------------------|

G|----------------6-6-6--|

D|-8-8--9-9--4-4--6-6-6--|(4X)

A|-8-8--9-9--4-4--4-4-4--|

E|-6-6--7-7--2-2---------|

 

Verse:

 

e|--------------|

B|--------------|

G|--------4~~~--|

D|-4~~~---4~~~--|

A|-4~~~---2~~~--|

E|-2~~~---------|

 

Chorus:

 

e|-----------------------------|

B|-----------------------------|

G|--------6-6-6----------------|

D|-4-4-4--6-6-6--8-8-8--9-9-9--|

A|-4-4-4--4-4-4--8-8-8--9-9-9--|

E|-2-2-2---------6-6-6--7-7-7--|

 

Bridge:

 

e|---------------------------------------------------------|

B|---------------------------------------------------------|

G|-----------------------------------------4-4-4-4-4--6-6--|

D|-4-4--4-4--4-4--4-4--8-8--8-8--8-8--8-8--4-4-4-4-4--6-6--|

A|-4-4--4-4--4-4--4-4--8-8--8-8--8-8--8-8--2-2-2-2-2--4-4--|

E|-2-2--2-2--2-2--2-2--6-6--6-6--6-6--6-6------------------|

 

e|-----------------------------------------------------------|

B|-----------------------------------------------------------|

G|-----------------------------------------4-4-4-4-4--2-2-2--|

D|-4-4--4-4--4-4--4-4--8-8--8-8--8-8--8-8--4-4-4-4-4--2-2-2--|

A|-4-4--4-4--4-4--4-4--8-8--8-8--8-8--8-8--2-2-2-2-2--0-0-0--|

E|-2-2--2-2--2-2--2-2--6-6--6-6--6-6--6-6--------------------|

 

 

 

Return to my New Found Glory tabs page

The Tablature is Copyright its respective owners.

Sign Up For My Newsletter
Subscribe | Unsubscribe

Site Map | Disclaimer | Privacy Policy | Media Kit | Submissions/Corrections

Website © 2000-2014 mattsmusicpage.com. All rights reserved.

Legal & DMCA: Matt's Music Page has been providing lyrics and tabs in a legal way, paying royalties each year to a few organizations. Then, all lyrics and tabs were removed from the site. Now, there's a new owner to the site, which purchased it August 26, 2014, and he is in negotiation to obtain licensing from BMI at the moment. If you have a specific DMCA request -- please do not hesitate to contact me via the contact button on top. I will do my very best to keep this site fully legal.

Get our toolbar!

 

AIR FRANCE - A HEBREW - FRENCH DICTIONARY ON A VINYL RECORD,ISRAEL,60's. cs4966
$39.95
AIR FRANCE - A HEBREW - FRENCH DICTIONARY ON A VINYL RECORD,ISRAEL,60's.  cs4966 picture


Vintage Super Heroes SuperCase Vinyl Records Superman Wonder Batman Joker
$38.0
Vintage Super Heroes SuperCase Vinyl Records Superman Wonder Batman Joker picture


DISNEY "SNOW WHITE & 7 DWARFS" 12" Vinyl LP Record w/Book DISNEYLAND RECORD 3906
$6.98
DISNEY


DISNEY "PETER PAN" 12" Vinyl LP Record w/ Book DISNEYLAND RECORD 3910
$6.98
DISNEY


DISNEY "The RESCUERS" 12" Vinyl LP Record DISNEYLAND RECORD 1369
$6.98
DISNEY