Your One-Stop Source For
Music Lyrics
Bass and Guitar Tabs
and More...
Music Lyrics Bass and Guitar Tabs

 

New Found Glory

The Tabs Are Below

Learn To Read Tab
Chords Handbook
Corrections & Additions
Get Official Tab
New Found Glory tabs @ 911Tabs

3RD AND LONG - New Found Glory

-------------------------------------------------------------------------------

 

By: Anthony Imburgia (antz001@yahoo.com)

 

Intro: Guitar 1

e|---------------------------------------------------------------------------|

B|---------------------------------------------------------------------------|

G|-7~------6~------7~------6~------------------------------------------------|

D|---------------------------------------------------------------------------|

A|---------------------------------------------------------------------------|

E|---------------------------------------------------------------------------|

 

Guitar 2

e|---------------------------------------------------------------------------|

B|---------------------------------------------------------------------------|

G|-7------6--------7---------------------------------------------------------|

D|-4------7--------x-------7-------------------------------------------------|

A|-5------4--------5-------7-------------------------------------------------|

E|-----------------7-------5-------------------------------------------------|

 

Verse: Guitar 1

e|---------------------------------------------------------------------------|

B|---------------------------------------------------------------------------|

G|-----7-7------7-7------6-6-----6-6------7-7-----7-7------------------------|

D|-----4-4------4-4------7-7-----7-7------x-x-----x-x-------7-7-----7-7------|

A|-5-5-5-5--5-5-5-5--4-4-4-4-4-4-4-4--5-5-5-5-5-5-5-5-------7-7-----7-7------|

E|------------------------------------7-7-7-7-7-7-7-7---5-5-5-5-5-5-5-5------|

pm . . . . . . . . . . . . . . . .

 

Guitar 2

e|---------------------------------------------------------------------------|

B|---------------------------------------------------------------------------|

G|---------------------------------------------------------------------------|

D|-----4--------7--------4-------7--------4-----555-444-7-7-7-7-7-7-7-7------|

A|-4-5---5--4-5--5---4-5---5-4-5---5--4-5---5-4---------7-7-7-7-7-7-7-7------|

E|------------------------------------------------------5-5-5-5-5-5-5-5------|

pm . . . . . . . . . . ... ... . . . .

 

Guitar 1

e|---------------------------------------------------------------------------|

B|---------------------------------------------------------------------------|

G|---------------------------------------------------------------------------|

D|--------------------5-4----------------------------------------------------|

A|-------4-5-4--0-0-0-------------4-5-4-0-00-5-------------------------------|

E|-3-3-3--------------------3-3-3--------------------------------------------|

 

Guitar 2

e|---------------------------------------------------------------------------|

B|---------------------------------------------------------------------------|

G|---------------------------------------------------------------------------|

D|-5-5-5-5-5-5--7-7-7-7-7---5-5-5-5-5-5-7777-7-------------------------------|

A|-5-5-5-5-5-5--7-7-7-7-7---5-5-5-5-5-5-7777-7-------------------------------|

E|-3-3-3-3-3-3--5-5-5-5-5---3-3-3-3-3-3-5555-5-------------------------------|

pm ....

 

Both guitars

e|---------------------------------------------------------------------------|

B|---------------------------------------------------------------------------|

G|-7-------------------------------------------------------------------------|

D|-7-7--55555555555----------------------------------------------------------|

A|-5-7--55555555555----------------------------------------------------------|

E|---5--33333333333----------------------------------------------------------|

 

Guitar 1

e|---------------------------------------------------------------------------|

B|---------------------------------------------------------------------------|

G|---------------------------------------------------------------------------|

D|-4h5-7--------5-5-5-5---4h5-7--------5-5-5-5/-9-/-7------------------------|

A|-------4h5-7--5-5-5-5---------4h5-7--5-5-5-5/-9-/-7------------------------|

E|--------------3-3-3-3----------------3-3-3-3/-7-/-5------------------------|

pm . . . . . . .

 

Guitar 2

e|---------------------------------------------------------------------------|

B|---------------------------------------------------------------------------|

G|-7----------------------7--------------------------------------------------|

D|-7-----7------5-5-5-5---7-----7------5-5-5-5/-9-/-7------------------------|

A|-5-----7------5-5-5-5---5-----7------5-5-5-5/-9-/-7------------------------|

E|-------5------3-3-3-3---------5------3-3-3-3/-7-/-5------------------------|

pm . . . . . . .

 

 

Return to my New Found Glory tabs page

The Tablature is Copyright its respective owners.

Sign Up For My Newsletter
Subscribe | Unsubscribe

Site Map | Disclaimer | Privacy Policy | Media Kit | Submissions/Corrections

Website © 2000-2014 mattsmusicpage.com. All rights reserved.

Get our toolbar!