Your One-Stop Source For
Music Lyrics
Bass and Guitar Tabs
and More...
Music Lyrics Bass and Guitar Tabs

 

New Found Glory

The Tabs Are Below

Learn To Read Tab
Chords Handbook
Corrections & Additions
Get Official Tab
New Found Glory tabs @ 911Tabs

2'S AND 3'S - A New Found Glory

-------------------------------------------------------------------------------

 

tabbed by: Josh (blinknfg19@yahoo.com)

 

x - muted string

/ - slide down

h - hammer on

p - pull off

~ - let chord ring

 

Intro: 2x

e|-----------------------------------------

B|-----------------------------------------

G|---------------------------------10-9-10~

D|-xxxx-33-33/5-55-55/7-77-77/8-8--x -x-x

A|-xxxx-33-33/5-55-55/7-77-77/8-8--8 -7-8 ~

E|-xxxx-11-11/3-33-33/5-55-55/6-6----------

 

Pre-Chorus Guitar 1:

e|----------------------------

B|----------------------------

G|-3~-xxxx-3~-xxxx-3~-xxxx-3~-

D|-3~-xxxx-3~-xxxx-3~-xxxx-3~-

A|-1~-xxxx-1~-xxxx-1~-xxxx-1~-

E|----------------------------

 

Pre-Chorus Guitar 2:

e|--------------------------------------------

B|--------------------------------------------

G|-3~-xxxx-3~-xxxx-5-3-5-3-5-3-5-3-5-3-5-3-5^~

D|-3~-xxxx-3~-xxxx----------------------------

A|-1~-xxxx-1~-xxxx----------------------------

E|--------------------------------------------

 

Verse: 8x

e|---------------------

B|---------------------

G|-----------5555-3333-

D|-3333-3333-5555-3333-

A|-3333-3333-3333-1111-

E|-1111-0000-----------

(no i didn't mess up this chord, it is 033xxx)

 

repeat intro 2x

repeat pre-chorus both guitars

 

Chorus: 4x

e|---------------------------------------------

B|---------------------------------------------

G|------3333-7777-10101010-5555-7777-3333-5555-

D|-3333-3333-7777-10101010-5555-7777-3333-5555-

A|-3333-1111-5555-8 8 8 8 -3333-5555-1111-3333-

E|-1111----------------------------------------

 

Guitar 2 comes in w/ this after 2x

e|------------------------------------------------------------

B|------------------------------------------------------------

G|-3p2---3p2---3p2---3p2---5-5-5-5--7-7-7-7--3-3-3-3--5-5-5-5-

D|-----3-----3-----3-----3------------------------------------

A|------------------------------------------------------------

E|------------------------------------------------------------

 

cont'd

e|-----------------------------------------------------

B|-----------------------------------------------------

G|-3p2---3p2---3p2---3p2--------------7-5--3-3h5p3-3---

D|-----3-----3-----3-----3--3-3-3-3-5----------------3~

A|-----------------------------------------------------

E|-----------------------------------------------------

 

Interlude

e|----

B|----

G|----

D|-3~-(mess around with toggle switch or pedal to get the effect)

A|-3~-

E|-1~-

 

repeat verse 4x

repeat intro 2x

repeat pre-chorus both guitars but hold the Bb chord on more time

before the lead part on gtr. 2

repeat chorus 4x

3rd time guitar 2 comes in w/ this

e|-------------------------------------------------------

B|-------------------------------------------------------

G|-3p2---3p2---3p2---3p2---5-5-5-5--7-7-7-7--10-10-10-10-

D|-----3-----3-----3-----3-------------------------------

A|-------------------------------------------------------

E|-------------------------------------------------------

 

cont'd (this may not be 100% but it sounds really close)

e|-----------------------------------------------------------------------

B|-13-----------------13----------------13-13-13-13/15-15-15-15/18^^^^^^-

G|----10-10h12p10-10-----10-10h12p10-10----------------------------------

D|-----------------------------------------------------------------------

A|-----------------------------------------------------------------------

E|-----------------------------------------------------------------------

 

Outro Guitar 1

e|---------------------------------------------

B|---------------------------------------------

G|------3333-7777-10101010-5555-7777-3333-5555-

D|-3333-3333-7777-10101010-5555-7777-3333-5555-

A|-3333-1111-5555-8 8 8 8 -3333-5555-1111-3333-

E|-1111----------------------------------------

 

cont'd

e|----------------------------------------

B|----------------------------------------

G|------3333-7777-10101010-5~-7~-3~-5~----

D|-3333-3333-7777-10101010-5~-7~-3~-5~-3~-

A|-3333-1111-5555-8 8 8 8 -3~-5~-1~-3~-3~-

E|-1111--------------------------------1~-

 

Outro Guitar 2 (may not be 100% but it sounds very very close)

e|------------------------------------------------------------

B|------------------------------------------------------------

G|-----5-3-2-----5-3-2-----7-5-3-3h5p3-2------5-3-2-----5-3-2-

D|-3-3-------3-3-------3-3----------------3-3-------3-3-------

A|------------------------------------------------------------

E|------------------------------------------------------------

 

cont'd

e|--------------------------

B|--------------------------

G|----5/7-7-7--3-3h5p3-2----

D|-3-3-------------------3~-

A|--------------------------

E|--------------------------

 

and you're done kids. amazing song!! amazing band!!

there may be some little mistakes on the lead parts and feedback

e-mail me.

 

 

Return to my New Found Glory tabs page

The Tablature is Copyright its respective owners.

Sign Up For My Newsletter
Subscribe | Unsubscribe

Site Map | Disclaimer | Privacy Policy | Media Kit | Submissions/Corrections

Website © 2000-2014 mattsmusicpage.com. All rights reserved.

Legal & DMCA: Matt's Music Page has been providing lyrics and tabs in a legal way, paying royalties each year to a few organizations. Then, all lyrics and tabs were removed from the site. Now, there's a new owner to the site, which purchased it August 26, 2014, and he is in negotiation to obtain licensing from BMI at the moment. If you have a specific DMCA request -- please do not hesitate to contact me via the contact button on top. I will do my very best to keep this site fully legal.

Get our toolbar!