Your One-Stop Source For
Music Lyrics
Bass and Guitar Tabs
and More...
>Music Lyrics Bass and Guitar Tabs

 

 

[an error occurred while processing this directive]

The Natasha Bedingfield Tabs Are Below

Learn To Read Tab
Chords Handbook
Corrections & Additions
Get Official Tab

Artist: Natasha Bedingfield

Song: These Words

Album: Unwritten

 

Intro:

G|------------------|

D|-----3------------|

A|-5-7----1---------|

E|-----------1--1-1-|

 

Verse 1:

G|--------------------------------------------------------|

D|--------------3----------------------------3------------|

A|-------5--5-7----1-----------------5---5-7----1---------|

E|-1--1---------------1--1-1--1--1-----------------1--1-1-|

 

Pre chours:

G|------------------------------------------------|

D|--------------3---------------3-----------------|

A|-------5--5-7----------5--5-7----------5--3-3-3-|

E|---3---------------3---------------3------------|

 

Chours:

G|------------------------------------------------------------|

D|--------------3-----------------------------3---------------|

A|-------5--5-7----1------3-3-3--------5--5-7----1------3-3-3-|

E|-1--1----------------1---------1--1----------------1--------|

 

Verse 2: Bass Comes in on "Hip-hop beat"

G|--------------------------------------------------|

D|-------3---------------------------3--------------|

A|---5-7----1-----------------5--5-7----1-----------|

E|-------------1--1-1-1-1--1----------------1-1-1-1-|

 

Chours:

G|------------------------------------------------------------|

D|--------------3-----------------------------3---------------|

A|-------5--5-7----1------3-3-3--------5--5-7----1------3-3-3-|

E|-1--1----------------1---------1--1----------------1--------|

 

G|------------------------------------------------------------|

D|--------------3-----------------------------3---------------|

A|-------5--5-7----1------3-3-3--------5--5-7----1------3-3-3-|

E|-1--1----------------1---------1--1----------------1--------|

 

Middle:

G|-----------------------------------------------------------------------|

D|-----------------------------------------------------------------------|

A|---------------------1-0--------------------1-0--------------------1-0-|

E|-1--3--1--3--1--3--1-------3--1--3--1--3--1-------3--1--3--1--3--1-----|

 

G|------------------------|

D|------------------------|

A|--------------------1-0-|

E|---3--1--3--1--3--1-----|

 

Pre chours:No bass

 

Chours:

G|------------------------------------------------------------|

D|--------------3-----------------------------3---------------|

A|-------5--5-7----1------3-3-3--------5--5-7----1------3-3-3-|

E|-1--1----------------1---------1--1----------------1--------|

 

G|-------------------------------------------------------------|

D|--------------3------------------------------3---------------|

A|-------5--5-7----1------3-3-3---------5--5-7----1------3-3-3-|

E|-1--1----------------1---------1--1-1---------------1--------|

 

Outro:

G|--------------------------------------------------------|

D|--------------3-----------------------------3-----------|

A|-------5--5-7----1------3-3-3--------5--5-7----1------3-|

E|-1--1----------------1---------1--1----------------1----|

 

 

Return to my Natasha Bedingfield Bass Tabs page

The Tablature is Copyright its respective owners.

The creator of this page is in no way affiliated with Natasha Bedingfield. The creator of this page is simply a fan that made a page about Natasha Bedingfield Bass Tablature and more.

Sign Up For My Newsletter
Subscribe | Unsubscribe

Site Map | Disclaimer | Privacy Policy | Media Kit | Submissions/Corrections

Website © 2000-2014 mattsmusicpage.com. All rights reserved.

Legal & DMCA: Matt's Music Page has been providing lyrics and tabs in a legal way, paying royalties each year to a few organizations. Then, all lyrics and tabs were removed from the site. Now, there's a new owner to the site, which purchased it August 26, 2014, and he is in negotiation to obtain licensing from BMI at the moment. If you have a specific DMCA request -- please do not hesitate to contact me via the contact button on top. I will do my very best to keep this site fully legal.

Get our toolbar!

 

Vintage 30 Hour Cuckoo Clock Weights Musical & Regular 5 Total
$8.99
Vintage 30 Hour Cuckoo Clock Weights Musical & Regular 5 Total  picture


VINTAGE SANKYO MUSIC BOX BOY AND GIRL ICE SKATING MADE IN JAPAN WORKS
$11.99
VINTAGE SANKYO MUSIC BOX BOY AND GIRL ICE SKATING MADE IN JAPAN WORKS  picture


VINTAGE SANKYO MUSIC BOX PORCELAIN HUMMINGBIRD AND FLOWER UNCHAINED MELODY
$18.99
VINTAGE SANKYO MUSIC BOX PORCELAIN HUMMINGBIRD AND FLOWER UNCHAINED MELODY picture


VINTAGE SCHMID BROTHERS JAPAN BOY & HIS DOG MUSIC BOX HUMMEL LIKE WORKS
$14.99
VINTAGE SCHMID BROTHERS JAPAN BOY & HIS DOG MUSIC BOX HUMMEL LIKE WORKS picture


Rare Orig VTG 1966 Variety Mag Abel Greene Pegeen Fitzgerald Bobbe Norris Photo
$22.95
Rare Orig VTG 1966 Variety Mag Abel Greene Pegeen Fitzgerald Bobbe Norris Photo picture