Your One-Stop Source For
Music Lyrics
Bass and Guitar Tabs
and More...
Music Lyrics Bass and Guitar Tabs

 

The Tabs Are Below

Learn To Read Tab
Chords Handbook
Corrections & Additions
Get Official Tab
Mudvayne tabs @ 911Tabs

Band: MuDvAyNe

Song: solve et coagula

album: the end of all things to come

inst: BASS

 

i seen that there are are some pretty dodgy copies of this so i decided to have a go.

Seeing that all my prevous tabs have been a success i think its pretty good anyway enjoy

 

intro

F[-------------------------------------------------]

C[-------------------------------------------------]

G[-------------------------------------------------]

C[----7--7-5-3-0000--------------7--7-5-3-0000-----]

 

F[-------------------------------------------------]

C[-------------------------------------------------]

G[-------------------------------------------------]

C[---12--12-10-8-5555------------12--12-10-8-5555--]

 

chorus (0:17)

F[------------------------------------------------------]

C[------------------------------------------------------]

G[------------------------------------------------------]

C[-3-3-3--0--0-2h3p2-0-2-2-2---3-3-3--0--0-2h3p2-0-2-2-2]

 

F[------------------------------------------------------]

C[------------------------------------------------------]

G[------------------------------------------------------]

C[-3-3-3--0--0-2h3p2-0-2-2-2---3-3-3--0--0-2h3p2-0------] x2

 

verse 1 (0:34)

F[----------------------------------------------------]

C[----------------------------------------------------]

G[-----/5------5h6p5-------/5------5/7\6--------/5----]

C[-0000----000-------0000-----000--------0000---------]

 

F[----------------------------------------------------]

C[----------------------------------------------------]

G[-------5h6p5------5h6-------5/7\6-------------------]

C[---000-------0000------000--------------------------]

(0:43)

F[-----7-------------------7--------8-------------------]

C[-----------------7------------------------------------]

G[------0hX0hX0hXX---------------------------------------]

C[-/7----------------0-0-X--X-0-0-X----------------------]

 

F[----------------------------------------------------]

C[----------------------------------------------------]

G[-------/5----/5~~~/8---------/5-----5h6p5-----------]

C[--0000---000------------0000----000-----------------]

 

chorus (0:52)

F[------------------------------------------------------]

C[------------------------------------------------------]

G[------------------------------------------------------]

C[-3-3-3--0--0-2h3p2-0-2-2-2---3-3-3--0--0-2h3p2-0-2-2-2]

 

F[------------------------------------------------------]

C[------------------------------------------------------]

G[------------------------------------------------------]

C[-3-3-3--0--0-2h3p2-0-2-2-2---3-3-3--0--0-2h3p2-0------] x2

 

verse 2 (1:09)

F[----------------------------------------------------]

C[----------------------------------------------------]

G[-----/5------5h6p5-------/5------5/7\6--------/5----]

C[-0000----000-------0000-----000--------0000---------]

 

F[----------------------------------------------------]

C[----------------------------------------------------]

G[-------5h6p5------5h6-------5/7\6-------------------]

C[---000-------0000------000--------------------------]

(1:18)

F[---------------------------------8-------------------]

C[-----------------7-------0-----------------------------]

G[------0hX0hX0hXX---------------------------------------]

C[-/7----------------0-0-X--X-0-0-X----------------------]

 

F[----------------------------------------------------]

C[----------------------------------------------------]

G[-------/5----/5~~~/8---------/5-----5h6p5-----------]

C[--0000---000------------0000----000-----------------]

 

chorus (1:27)

F[------------------------------------------------------]

C[------------------------------------------------------]

G[------------------------------------------------------]

C[-3-3-3--0--0-2h3p2-0-2-2-2---3-3-3--0--0-2h3p2-0-2-2-2]

 

F[------------------------------------------------------]

C[------------------------------------------------------]

G[------------------------------------------------------]

C[-3-3-3--0--0-2h3p2-0-2-2-2---3-3-3--0--0-2h3p2-0------] x2

 

bridge (1:44)

F[----------------------------------------------------------------]

C[----------------------------------------------------------------]

G[--5----------5----------5------8-8-8-8-5----------5-------------]

C[---3-0-2-0-0--3-0-2-0-0--3-0-2----------3-0-2-0-0--3-0-2-0-0----]x2

(1:53)

F[----------------------------------------------------------------]

C[----------------------------------------------------------------]

G[--5----------5----------5------8-8-8-8-8-8-8-8-7-7-7-7-7-7-7-7--]

C[---3-0-2-0-0--3-0-2-0-0--3-0-2----------------------------------]x2

(2:02)

F[-------------------------------10101010101010108-8-8-8-8-8-8-8--]

C[----------------------------------------------------------------]

G[--5----------5----------5------8-8-8-8-8-8-8-8-7-7-7-7-7-7-7-7--]

C[---3-0-2-0-0--3-0-2-0-0--3-0-2----------------------------------]

(2:07)

F[----------------------------------------------------------------]

C[----------------------------------------------------------------]

G[--5----------5----------5------8-8-8-8-8-8-8-8-7-7-7-7-7-7-7-7--]

C[---3-0-2-0-0--3-0-2-0-0--3-0-2----------------------------------]

(2:11)

F[----------------------------------------------------------10-----]

C[----------------------------------------------------------------]

G[--5----------5----------5---------------------------------------]

C[---3-0-2-0-0--3-0-2-0-0--3-0-2--0--0--X0--0--0--0--0--X---------]

(2:15) s s ss s s s s s p

F[----------------------------------------------------------------]

C[----------------------------------------------------------------]

G[--5----------5----------5------8-8-8-8-8-8-8-8-7-7-7-7-7-7-7-7--]

C[---3-0-2-0-0--3-0-2-0-0--3-0-2----------------------------------]

 

bridge 2 (2:20)

F[-----------------------------------]

C[-----------------------------------]

G[-----------------------------------]

C[-3-3-3-0-0-0-2-2-2-0-0-0-2-2-2-2---]x4

 

chorus (2:29)

F[------------------------------------------------------]

C[------------------------------------------------------]

G[------------------------------------------------------]

C[-3-3-3--0--0-2h3p2-0-2-2-2---3-3-3--0--0-2h3p2-0-2-2-2]

 

F[------------------------------------------------------]

C[------------------------------------------------------]

G[------------------------------------------------------]

C[-3-3-3--0--0-2h3p2-0-2-2-2---3-3-3--0--0-2h3p2-0------] x2

 

remember if u have any questions or comments feel free to contact me at deathblooms_@hotmail.co.uk

 

 

Return to my Mudvayne bass tabs page

The Tablature is Copyright its respective owners.

Sign Up For My Newsletter
Subscribe | Unsubscribe

Site Map | Disclaimer | Privacy Policy | Media Kit | Submissions/Corrections

Website © 2000-2014 mattsmusicpage.com. All rights reserved.

Legal & DMCA: Matt's Music Page has been providing lyrics and tabs in a legal way, paying royalties each year to a few organizations. Then, all lyrics and tabs were removed from the site. Now, there's a new owner to the site, which purchased it August 26, 2014, and he is in negotiation to obtain licensing from BMI at the moment. If you have a specific DMCA request -- please do not hesitate to contact me via the contact button on top. I will do my very best to keep this site fully legal.

Get our toolbar!

 

Starbucks You Are Here Coffee Mug/Cup KENTUCKY - Horses, Banjo, Blue, White
$19.99
Starbucks You Are Here Coffee Mug/Cup KENTUCKY - Horses, Banjo, Blue, White picture


KNOWLES ROCKWELL HERITAGE "THE BANJO PLAYER" FIRST EDITION 1989 PLATE COA
$5.99
KNOWLES ROCKWELL HERITAGE


Vintage Postcard 1981 Disney World Banjo Kings Main Street USA 1981 Postmark
$4.99
 Vintage Postcard 1981 Disney World Banjo Kings Main Street USA 1981 Postmark picture


Banjo Barometer With Thermometer Hygrometer 490mm
$84.76
Banjo Barometer With Thermometer Hygrometer 490mm picture


ANTIQUE JAPANESE NIPPON FIGURINE SET OF 3 WOMEN GEISHA PLAYING DRUM BANJO FAN
$24.0
ANTIQUE JAPANESE NIPPON FIGURINE SET OF 3 WOMEN GEISHA PLAYING DRUM BANJO FAN picture