Your One-Stop Source For
Music Lyrics
Bass and Guitar Tabs
and More...
Music Lyrics Bass and Guitar Tabs

 

The Tabs Are Below

Learn To Read Tab
Chords Handbook
Corrections & Additions
Get Official Tab
Mudvayne tabs @ 911Tabs

Artist: Mudvayne

Song: Skrying

Album: The End Of All Things To Come (2003)

Bassist: Ryan Martinie

Tuning: C-G-C-F

 

 

Verse 1:

F|----------------------------------------x-------------------------------|

C|-------------------3----------------------------------3-----------------|

G|--6--6-5-----6--5--3-----3--5--8--6--6-x--5-----6--5--3-----3--5--8--6--|

C|------------------------------------------------------------------------|

SP

F|--------------------------------------------------------------------------|

C|-------------------3----------------------------------3-------------------|

G|--6-8--5-----6--5--3-----3--5--8--6--6-6--5-----6--5--3-----3--5--8-------|

C|-------------------3-------------------------------------------------1/3--|

 

 

Chorus:

F|------------------------------------------------------------------------------------------|

C|------------------------------------------------------------------------------------------|

G|--------------------------------------5h7h8-----------------------------------------------|

C|--6h7h6-6h7h6---0-7-10--6h7h6-6h7h6----------6h7h6-6h7h6---0-7-10--6h7h6-6h7h6-6h7h6-6-7--|

 

 

Verse 2:

F|------------------------------------------------------------------------|

C|-------------------3----------------------------------3-----------------|

G|--6-6--5-----6--5--3-----3--5--8-----6-8--5-----6--5--3-----3--5--8--6--|

C|------------------------------------------------------------------------|

 

F|------------------------------------------------------------------------|

C|-------------------3----------------------------------3-----------------|

G|--6-8--5-----6--5--3-----3--5--8-----6-8--5-----6--5--3-----3--5--8--6--|

C|------------------------------------------------------------------------|

 

 

Chorus:

F|-----------------------------------------------------------------------------------------|

C|-----------------------------------------------------------------------------------------|

G|--------------------------------------5h7h8----------------------------------------------|

C|--6h7h6-6h7h6---0-7-10--6h7h6-6h7h6----------6h7h6-6h7h6---0-7-10--6h7h6-6h7h6-1/5--6-6--|

 

F|-----------------------------------------------------------------------------------------|

C|-----------------------------------------------------------------------------------------|

G|--------------------------------------5h7h8----------------------------------------------|

C|--6h7h6-6h7h6---0-7-10--6h7h6-6h7h6----------6h7h6-6h7h6---0-7-10--6h7h6-6h7h6-1/5--6-6--|

 

 

Verse 3:

F|-----x------------------------------------------------------------------|

C|-------------------3----------------------------------3-----------------|

G|--6-x--5-----6--5--3-----3--5--8-----6-8--5-----6--5--3-----3--5--8--6--|

C|------------------------------------------------------------------------|

SP

 

Chorus:

F|-----------------------------------------------------------------------------------------|

C|-----------------------------------------------------------------------------------------|

G|--------------------------------------5h7h8----------------------------------------------|

C|--6h7h6-6h7h6---0-7-10--6h7h6-6h7h6----------6h7h6-6h7h6---0-7-10--6h7h6-6h7h6-1/5--6-6--|

 

F|----------------------------------------------------------------------------------------|

C|----------------------------------------------------------------------------------------|

G|----------------------------------------------------------------------------------------|

C|--6h7h6-6h7h6----6h7h6-6h7h6-6h7h6----6h7h6-6h7h6-6h7h6----6h7h6-6h7h6-6h7h6--1/5--6-6--|

 

F|----------------------------------------------------------------------------------------|

C|----------------------------------------------------------------------------------------|

G|----------------------------------------------------------------------------------------|

C|--6h7h6-6h7h6----6h7h6-6h7h6-6h7h6----6h7h6-6h7h6-6h7h6----6h7h6-6h7h6-6h7h6--1/5--6-6--|

 

 

Interlude: __

F|-------------------------------------------------| \\

C|-------------------------------------------------| \\

G|--17-15-17-15-17-18-17-15--12-13-----------------| \\

C|---------------------------------12-13-13-12-13--| \\

- (x5)

F|----------------------------------------------| /

C|------------------------------------------15--| /

G|--17-17-15-17-18-17-15--12-13-----------------| /

C|------------------------------12-13-13-12-----|_____/

 

F|------------------------------------------------------------------|

C|---------------------------------------------------------------3--|

G|--5-3-5-3-5-6-5-3--0-1------------5-3-5-3-5-6-5-3--0-1------------|

C|-----------------------0-1-1-0-1-----------------------0-1-1-0----| (x8)

 

F|------------------------------------------x-------------------------------------------5--|

C|-----------------------------------------------------------------------------------------|

G|--2-------2-------------2-------2-------------2-------2-------------2-------2------------|

C|----1-0-1---1-0-1--x-x----1-0-1---1-0-1--x------1-0-1---1-0-1--x-x----1-0-1---1-0-1-/x---|

S S SP S S SP

 

F|------------------------------------------x-------------------------------------------5--|

C|-----------------------------------------------------------------------------------------|

G|--2-------2-------------2-------2-------------2-------2-------------2-------2------------|

C|----1-0-1---1-0-1--x-x----1-0-1---1-0-1--x------1-0-1---1-0-1--x-x----1-0-1---1-0-1-/x---|

S S SP S S SP

 

F|-------|

C|-------|

G|-------|

C|--6-6--|

 

 

Chorus:

F|-----------------------------------------------------------------------------------------|

C|-----------------------------------------------------------------------------------------|

G|--------------------------------------5h7h8----------------------------------------------|

C|--6h7h6-6h7h6---0-7-10--6h7h6-6h7h6----------6h7h6-6h7h6---0-7-10--6h7h6-6h7h6-1/5--6-6--|

 

F|-----------------------------------------------------------------------------------------|

C|-----------------------------------------------------------------------------------------|

G|--------------------------------------5h7h8----------------------------------------------|

C|--6h7h6-6h7h6---0-7-10--6h7h6-6h7h6----------6h7h6-6h7h6---0-7-10--6h7h6-6h7h6-1/5--6-6--|

 

 

Outro:

F|---------------------------------------------------------|

C|-------------------3----------------------------------3--|

G|--6--6-5-----6--5--3-----3--5--8-----6--8-5-----6--5--3--|

C|---------------------------------------------------------|

 

F|----------------------|

C|--------3----------3--|

G|--6--5--3----6--5--3--|

C|--6--5-------6--5-----| (x5)

Fade Out Gradually

 

Fade In Gradually

F|-----------------------------------------------------|

C|-----------------------------------------------------|

G|------------------------------------------------/24--|

C|--1-1-x-0--x-1--x-1-x-0--1-1-1-x-0--x-2-x-1-x-0------|

S S S S S S S S S S S S S S S S S S S S S

 

 

 

Return to my Mudvayne bass tabs page

The Tablature is Copyright its respective owners.

Sign Up For My Newsletter
Subscribe | Unsubscribe

Site Map | Disclaimer | Privacy Policy | Media Kit | Submissions/Corrections

Website © 2000-2014 mattsmusicpage.com. All rights reserved.

Legal & DMCA: Matt's Music Page has been providing lyrics and tabs in a legal way, paying royalties each year to a few organizations. Then, all lyrics and tabs were removed from the site. Now, there's a new owner to the site, which purchased it August 26, 2014, and he is in negotiation to obtain licensing from BMI at the moment. If you have a specific DMCA request -- please do not hesitate to contact me via the contact button on top. I will do my very best to keep this site fully legal.

Get our toolbar!