Your One-Stop Source For
Music Lyrics
Bass and Guitar Tabs
and More...
Music Lyrics Bass and Guitar Tabs

 

The Guitar Tabs Are Below

Learn To Read Tab
Chords Handbook
Corrections & Additions
Get Official Tab
Mudvayne tabs @ 911Tabs

Song: "Severed"

Artist: Mudvayne

Album: L.D. 50

Transcribed By: thomas hassler <slip_knot_79@hotmail.com>

 

Tuning: Drop D, Down 1 1/2 Steps (B,F#,B,E,G#,C#)

~ - vibration

<> - harmonics

* - palm mute

 

INTRO:

|----------------------------------------------|

|-----16---------------------------------------|

|---15--15-15-15-15-15-15-15-15-14-14-14-14-14-|

|-14-------0--0--0--0--0--0--0--0--0--0--0—-0--|

|----------0--0--0--0--0--0--0--0--0--0--0--0--|

|----------------------------------------------|

 

INTRO 2:

|-------------------------------------------------------------------|

|----------------16-------------------------------16----------------|

|-------------15----15-14-14-14-14-------------15----15-14-14-14-14-|

|-1--0--1--14-----------0--0--0--0-1—-0--1--14-----------0--0--0--0-|

|-1--0--1---------------0--0--0--0-1—-0—-1---------------0--0--0--0-|

|-1--0--1--------------------------1--0—-1--------------------------|

 

|------------------------------------|

|------------------------------------|

|------------------------------------|

|-1--0--1-------------------1--0--1--|

|-1--0--1--0-0-0-0-0-0-0-0--1--0--1--|

|-1--0--1--0-0-0-0-0-0-0-0--1--0--1--|

* * * * * * * *

VERSE: (palm mute)

|-----------------|

|-----------------|

|-----------------|

|-0-0-0--00-0-0-0-|

|-0-0-0--00-0-0-0-|

|-0-0-0--00-0-0-0-|

* * * ** * * *

 

BRIDGE:

|----------------------------------------|

|----------------------------------------|

|----------------------------------------|

|-1-1--1-1--1-1--1-1--3-3--3-3--3-3--3-3-|

|-1-1--1-1--1-1--1-1--3-3--3-3--3-3--3-3-|

|-1-1--1-1--1-1--1-1--3-3--3-3--3-3--3-3-|

 

FILL: (palm mute)

|-----------------|

|-----------------|

|-----------------|

|-0-0-0-0-0-0-0-0-|

|-0-0-0-0-0-0-0-0-|

 

 

|-0-0-0-0-0-0-0-0-|

* * * * * * * *

 

CHORUS:

|--------------------------------------------------------|

|--------------------------------------------------------|

|--------------------------------------------------------|

|--------------------------------------------------------|

|-8-8-8-8-10-8-8-8-8-8-8-10-8-8--8-7-5-8-8-8-10-8-11\\10-|

|-8-8-8-8-10-8-8-8-8-8-8-10-8-8--------8-8-8-10-8--------|

 

|----------------------|

|----------------------|

|----------------------|

|----------------------|

|-8-8-8-8--8\\7\\5-8-8-|

|-8-8-8-8--------8-8---|

 

VERSE 2:

|------------------|

|------------------|

|----14----14------|

|-15----15----14~~-|

|------------------|

|------------------|

 

FILL 2:

|-------|

|-------|

|-------|

|-X-<3>-|

|-X-----|

|-X-----|

 

FILL 3:

|-----|

|-----|

|-----|

|-----|

|-----|

|-1/8-|

 

INTERLUDE:

|----------------------------------------------------------------------|

|---------------------------------------------------6-6----------------|

|---4-5-4-7-----------------4-5---------------4-5-7------------------5-|

|-0-------------3-2-2-2-2-0---------0-2-2-2-0-------------<3>--<3>---5-|

|-0---------2/3-3-2-2-2-2-0-----2/3-0-2-2-2-0-----------00---00---00-3-|

|-0-------------3-2-2-2-2-0---------0-2-2-2-0-----------00---00---00---|

* * * * * * * * * ** ** **

 

FILL 4:

|---|

|---|

|---|

|-5-|

|-5-|

|-5-|

 

INTERLUDE 2: guitar with effects

|-------------------------------------|

|-------------------------------------|

|-6\\5-5-5-5-5-5-5-6\\5-5-5-5-5-10/12-|

|-X-X-X-X-X-X-X-X-X-X-X-X-X-X--X--X---|

|-4\\3-3-3-3-3-3-3-4\\3-3-3-3-3--8/10-|

|-------------------------------------|

 

INTERLUDE 2:

|-----------------------------------------------------------------|

|-----------------------------------------------------------------|

|-----------------------------------------------------------------|

|-0-0-0-0-0--0-0-0-0-0--0-0-0-0-0-0-0-0-0-0--0-0-0-0-0--0-0-0-0-0-|

|-0-0-0-0-0--0-0-0-0-0--0-0-0-0-0-0-0-0-0-0--0-0-0-0-0--0-0-0-0-0-|

|-0-0-0-0-0--0-0-0-0-0--0-0-0-0-0-0-0-0-0-0--0-0-0-0-0--0-0-0-0-0-|

 

FILL 5:

|----|

|----|

|----|

|-10-|

|-10-|

|-10-|

 

INTERLUDE 3: guitar with delay

|--------------------------------------------|

|--------------------------------------------|

|--------------------------------------------|

|-----10---11-10--------------10--11-10------|

|---10--10------10-11p10\\8--10--10-----10/11-|

|-11----------------------10-----------------|

 

INTERLUDE 3:

|---------------|

|---------------|

|---------------|

|-11-11---10-10-|

|-11-11---10-10-|

|-11-11---10-10-|

 

INTERLUDE 3 FILL: guitar with delay

|----------------------------|

|----------------------------|

|----------------------------|

|-----10---11-13-11----------|

|---10--10----------11p10\\8-|

|-11-------------------------|

 

FILL 6: palm mute with gradual release

|-------------------------------------------------|

|-------------------------------------------------|

|-------------------------------------------------|

|-10-10-10-10-10-10-10-10-10-10-10-10-10-10-10-10-|

|-10-10-10-10-10-10-10-10-10-10-10-10-10-10-10-10-|

|-10-10-10-10-10-10-10-10-10-10-10-10-10-10-10-10-|

 

 

Return to my Mudvayne tabs page

The Tablature is Copyright its respective owners.

Sign Up For My Newsletter
Subscribe | Unsubscribe

Site Map | Disclaimer | Privacy Policy | Media Kit | Submissions/Corrections

Website © 2000-2014 mattsmusicpage.com. All rights reserved.

Legal & DMCA: Matt's Music Page has been providing lyrics and tabs in a legal way, paying royalties each year to a few organizations. Then, all lyrics and tabs were removed from the site. Now, there's a new owner to the site, which purchased it August 26, 2014, and he is in negotiation to obtain licensing from BMI at the moment. If you have a specific DMCA request -- please do not hesitate to contact me via the contact button on top. I will do my very best to keep this site fully legal.

Get our toolbar!

 

Hard Rock Pin Las Vegas 4th of july red white and blue guitar
$5.0
Hard Rock Pin Las Vegas 4th of july red white and blue guitar picture


Hard Rock Pin Hollywood Fl Bell Girl with dice luggage and guitar
$5.0
Hard Rock Pin Hollywood Fl Bell Girl with dice luggage and guitar picture


Hard Rock Pin Las Vegas King of Clubs Guitar rare only 3 lines of info on back
$5.0
Hard Rock Pin Las Vegas King of Clubs Guitar rare only 3 lines of info on back picture


Hard Rock Pin Edmonton guitar pin
$5.0
Hard Rock Pin Edmonton guitar pin picture


Lladro Guitar Boy #4614 - Beautiful Piece of Lladro
$109.0
Lladro Guitar Boy #4614 - Beautiful Piece of Lladro picture