Your One-Stop Source For
Music Lyrics
Bass and Guitar Tabs
and More...
Music Lyrics Bass and Guitar Tabs

 

The Guitar Tabs Are Below

Learn To Read Tab
Chords Handbook
Corrections & Additions
Get Official Tab
Mudvayne tabs @ 911Tabs

Band - MudVayne

Album - The End Of All Things To Come

Song - On The Move

Tabbed by - Trey Wright

E-mail - Tw1tchy3y3nokc@AOL.com

Tuning - Drop C - Low to High (CGCFAD)

 

This tab is far from perfect and is probably off alot. But it's my

first tab and I did this song cause I haven't found any tabs on the

net for it. What I'm hoping for is someone to see this thing an

correct it...

 

Intro

|-----------------------------|

|-----------------------------|

|-----------------------------|

|-----------------------------|

|-3-4-3-4-0-00-3-4-5-0-4-3-00-|

|-3-4-3-4-0-00-3-4-5-0-4-3-00-|

 

Verse 1

|--------------------|

|--------------------|

|-5-5-5-----5-5-5----|

|-X-X-X-----X-X-X----|

|-3-3-3--0--3-3-3--0-|

|--------0---------0-|

 

|-----------------------------------------------------------|

|-----------------------------------------------------------|

|-------4--5-5-5-----5-5-5------------4--5-5-5-----5-5-5----|

|-------X--X-X-X-----X-X-X------------X--X-X-X-----X-X-X----|

|-000-0-2--3-3-3--0--3-3-3-0------000-2--3-3-3--0--3-3-3--0-|

|-000-0-----------0--------0------000-----------0---------0-|

 

Verse 2

|--------------------|

|--------------------|

|-5-5-5-----5-5-5----|

|-X-X-X-----X-X-X----|

|-3-3-3--0--3-3-3--0-|

|--------0---------0-|

 

|-----------------------------------------------------------------------|

|-----------------------------------------------------------------------|

|------------------5-5-5-----5-5-5-------------------5-5-5-----5-5-5----|

|------------------X-X-X-----X-X-X-------------------X-X-X-----X-X-X----|

|-00-00-00-000-00--3-3-3--0--3-3-3--00-00-00-000-00--3-3-3--0--3-3-3--0-|

|-00-00-00-000-00---------0---------00-00-00-000-00---------0---------0-|

 

Verse 3

|----------------------------------------------------------------------------|

|----------------------------------------------------------------------------|

|-5-5-5-----5-5-5----------7-------7----5-5-5-----5-5-5----------7-------7---|

|-X-X-X-----X-X-X----------X-------X----X-X-X-----X-X-X----------X-------X---|

|-3-3-3--0--3-3-3--0--000--5--000--5-0--3-3-3--0--3-3-3--0--000--5--000--5-0-|

|--------0---------0--000-----000----0---------0---------0--000-----000----0-|

 

Chorus

|-------|---------------------------------------------|

|-------|---------------------------------------------|

|-------|---------------------------------------------|

|10-(64)|---------------------------------------------|

|7------|-3-3H4H5P4-3-0-4H5P4P3-3-3H4H5P4-3-0-4H5P4P3-|

|7------|-3-3H4H5P4-3-0-4H5P4P3-3-3H4H5P4-3-0-4H5P4P3-|

 

|---------------------------|

|---------------------------|

|---------------------------|

|---------------------------|

|-3-54--0-540--3-54--0--540-|

|-3-54--0-540--3-54--0--540-|

 

Breakdown

|------------------------------------------------------------------|

|------------------------------------------------------------------|

|------------------------------------------------------------------|

|----10-----10-------10-------10--------9-----9-------9-------9----|

|-7------7------7-7------7-7------7--6-----6-----6-6-----6-6-----6-|

|------------------------------------------------------------------|

 

|--------------------------------|

|--------------------------------|

|--------------------------------|

|--------------------------------|

|-443-44-454-453--332-33-343-342-|

|-443-44-454-453--332-33-343-342-|

 

 

 

Return to my Mudvayne tabs page

The Tablature is Copyright its respective owners.

Sign Up For My Newsletter
Subscribe | Unsubscribe

Site Map | Disclaimer | Privacy Policy | Media Kit | Submissions/Corrections

Website © 2000-2014 mattsmusicpage.com. All rights reserved.

Legal & DMCA: Matt's Music Page has been providing lyrics and tabs in a legal way, paying royalties each year to a few organizations. Then, all lyrics and tabs were removed from the site. Now, there's a new owner to the site, which purchased it August 26, 2014, and he is in negotiation to obtain licensing from BMI at the moment. If you have a specific DMCA request -- please do not hesitate to contact me via the contact button on top. I will do my very best to keep this site fully legal.

Get our toolbar!