Your One-Stop Source For
Music Lyrics
Bass and Guitar Tabs
and More...
Music Lyrics Bass and Guitar Tabs

 

The Tabs Are Below

Learn To Read Tab
Chords Handbook
Corrections & Additions
Get Official Tab
Mudvayne tabs @ 911Tabs

Band:Mudvayne

Song:Happy

Album:Lost and Found

Tabber:Jared Myers

 

I just got this CD today and this song is the ***. This is def. one of their best songs.

The drums are complicated and the memorization is the challeging part of this song

Enjoy and please rate.

 

 

C |XXXXC-------C---|XXXXC-------C---|XXXXC-------C---|X-X-X-X-C-----------------------|

H |--------0-------|--------0-------|--------0-------|--------------------------------|

T |----------------|----------------|----------------|------------11111-1-2-2-3-3-4-4-|

S |----o-------o---|----o-------o---|----o-------o---|--------o-----------------------|

B |oooo---------o--|oooo-------o-o--|oooo------oo-o--|o-o-o-o-o-o-o-o-o-o-o-o-o-o-o-o-|

|1 + 2 + 3 + 4 + |1 + 2 + 3 + 4 + |1 + 2 + 3 + 4 + |1 + 2 + 3 + 4 + |

 

 

C |XXXXC-------C---|XXXXC-------C---|XXXXC-------C---|X-----------X---C---------------|

R |----------------|----------------|----------------|----r---r-----------------------|

H |--------0-------|--------0-------|--------0-------|--------------------------------|

T |----------------|----------------|----------------|------------------222-3-----4-4-|

S |----o-------o---|----o-------o---|----o-------o---|------o-----o-----------o-o-----|

B |oooo---------o--|oooo-------o-o--|oooo------oo-o--|o-o-o-----oo----o---------------|

|1 + 2 + 3 + 4 + |1 + 2 + 3 + 4 + |1 + 2 + 3 + 4 + |1 + 2 + 3 + 4 + |

 

|-------3x-------|-------3x-------|

C |X#--------------|----------------|X---------------|X-----X-----X---|

H |----------------|----------------|--h-h-h-h-0#h-h-|--h-----0-0-----|

S |----------------|----------------|---o-g-g----o--g|---oo----o--o-fo|

B |o---------------|----------------|o-----o--oo--o--|o-----o----d-o--|

|1 + 2 + 3 + 4 + |1 + 2 + 3 + 4 + |1 + 2 + 3 + 4 + |1 + 2 + 3 + 4 + |

 

 

C |X---------------|----------------|X---------------|----------------|

R |--r-r-r-r-r-r-r-|r-r-r-r-r-r-r-r-|--r-r-r-r-r-r-r-|r-r-r-r-r-r-----|

T |----------------|----------------|----------------|--------------22|

S |---o------o----o|--------o-----o-|---o------o----o|--------o---fo--|

B |ooo---o--o--ooo-|----o--o----oo--|ooo---o--o--ooo-|----o--o----oooo|

|1 + 2 + 3 + 4 + |1 + 2 + 3 + 4 + |1 + 2 + 3 + 4 + |1 + 2 + 3 + 4 + |

 

 

C |X-----------X---|------------X---|X-----------X---|X-----------X---C---------------|

R |--r-r-r-r-r---r-|r-r-r-r-r-r---r-|--r-r-r-r-r---r-|----r---r-----------------------|

T |----------------|----------------|----------------|------------------223-3-----4-4-|

S |----o-------o---|----o-------o---|----o-------o---|------o-----o---o-------o-o-----|

B |oooo--o--oo--ooo|-------oo----oo-|oooo--o--oo--ooo|o-o-o-----oo--------------------|

|1 + 2 + 3 + 4 + |1 + 2 + 3 + 4 + |1 + 2 + 3 + 4 + |1 + 2 + 3 + 4 + |

 

 

C |X---------------|X---------------|X---------------|X-----X-----C---|

R |----------------|----------------|----------------|--r-r---r-r-----|

H |----0---0---0---|----0---0---0---|----0---0---0---|----------------|

S |---o--------o---|----o-------o-oo|---o--------o-oo|---o--o-----o-oo|

B |ooo--oo---oo-o--|oooo--oo--oo-o--|ooo--oo---oo-o--|ooo--d--oo-d-o--|

|1 + 2 + 3 + 4 + |1 + 2 + 3 + 4 + |1 + 2 + 3 + 4 + |1 + 2 + 3 + 4 + |

 

 

C |X---------------|X---------------|X---------------|X-----------X---C---------------|

R |----------------|--------------r-|----------------|----r---r-----------------------|

H |----0---0---0---|----0---0---0---|----0---0---0---|--------------------------------|

T |----------------|----------------|----------------|------------------223-3-----4-4-|

S |---o--------o-oo|----o-------o-oo|---o--------o-fo|------o-----o---o-------o-o-----|

B |ooo--oo---oo-o--|oooo--oo--oo-o--|ooo--oo---oo-o--|o-o-o-----oo--------------------|

|1 + 2 + 3 + 4 + |1 + 2 + 3 + 4 + |1 + 2 + 3 + 4 + |1 + 2 + 3 + 4 + |

 

 

C |X---------------|--------------X-|X---------------|--------------X-|

R |--r-r-r-r-r-r-r-|r-r-r-r-r-r-r---|--r-r-r-r-r-r-r-|r-r-r-r-r-r-r---|

S |---o------o----o|--------o-----o-|---o------o----o|--------o-----o-|

B |ooo---o--o--ooo-|----o--o----oo--|ooo---o--o--ooo-|----o--o----od--|

|1 + 2 + 3 + 4 + |1 + 2 + 3 + 4 + |1 + 2 + 3 + 4 + |1 + 2 + 3 + 4 + |

 

 

C |X---------------|----------------|X---------------|----------------|

R |--r-r-r-r-r-r-r-|r-r-r-r-r-r-r-r-|--r-r-r-r-r-r-r-|r-r-r-r-r-r-----|

T |----------------|----------------|----------------|--------------44|

S |---o------o----o|--------o-----oo|---o------o----o|--------o---oo--|

B |ooo---o--o--ooo-|----o--o----oo--|ooo---o--o--ooo-|----o--o----oooo|

|1 + 2 + 3 + 4 + |1 + 2 + 3 + 4 + |1 + 2 + 3 + 4 + |1 + 2 + 3 + 4 + |

 

 

C |X-----------X---|------------X---|X-----------X---|X-----C-X#------|

R |--r-r-r-r-r---r-|r-r-r-r-r-r---r-|--r-r-r-r-r-r-r-|--r-r-----------|

S |----o-------o---|----o-------o---|----o-----------|---o--oo--------|

B |oooo--o--oo--ooo|-------oo----oo-|oooo--o--oo-oooo|ooo--d--o-------|

|1 + 2 + 3 + 4 + |1 + 2 + 3 + 4 + |1 + 2 + 3 + 4 + |1 + 2 + 3 + 4 + |

 

 

C |X---------------|X---------------|X---------------|X-----X-----C---|

R |----------------|----------------|----------------|--r-r---r-r---r-|

H |----0---0---0---|----0---0---0---|----0---0---0---|----------------|

S |---o--------o---|----o-------o-oo|---o--------o-oo|---o--o-----o-oo|

B |ooo--oo---oo-o--|oooo--oo--oo-o--|ooo--oo---oo-o--|ooo--d--oo-d-o--|

|1 + 2 + 3 + 4 + |1 + 2 + 3 + 4 + |1 + 2 + 3 + 4 + |1 + 2 + 3 + 4 + |

 

 

C |X---------------|X-----------C---|X---------------|----X---------X-|

H |----0---0---0---|----0---0-------|----0---0---0---|--------0-------|

T |----------------|----------------|----------------|5-5---5---------|

S |----o-------o-oo|----o-------o-oo|----o-------o-oo|----o-------oo--|

B |oooo--oo--oo-o--|oooo--oo--oo-o--|oooo--oo--oo-o--|oooo--oooooo--o-|

|1 + 2 + 3 + 4 + |1 + 2 + 3 + 4 + |1 + 2 + 3 + 4 + |1 + 2 + 3 + 4 + |

 

 

C |X---C---C-CXCXCX|X---C---C-CXCXCX|X---C---C-CXCXCX|X-------C---X-C-C---------------|

T |----------------|----------------|----------------|------------------------1-1-2-2-|

S |o---o---o---o---|o---o---o---o---|o---o---o---o---|o-------o-------o-ooo-o---------|

B |---d--o---oo-ooo|---d--o---oo-ooo|---d--o---oo-ooo|------oo----o-------------------|

|1 + 2 + 3 + 4 + |1 + 2 + 3 + 4 + |1 + 2 + 3 + 4 + |1 + 2 + 3 + 4 + |

 

 

C |X---------------|----------------|S---------------|------------S---|

H |--h-h-h-h-0#h-h-|0#h-h-h-h-0#h-h-|--h-h-h-h-0#h-h-|0#h-h-h-h-0#--h-|

S |----o-------o---|----o-------o---|----o-------o--d|----o-------o--o|

B |o--o---o-oo--o-o|o--o---o-oo--o--|o--o---o-oo--o--|o--o---o-oo--o--|

|1 + 2 + 3 + 4 + |1 + 2 + 3 + 4 + |1 + 2 + 3 + 4 + |1 + 2 + 3 + 4 + |

 

 

C |X---------------|X-----------X---|X---------------|X-------C-C-----|

H |--h-h-h-h-0#h-h-|--h-h-h-h-h-----|--h-h-h-h-0#h-h-|--h-h-h---------|

S |----o-------o--o|----o-------o-oo|----o-------o--d|----o---o-o-oooo|

B |o--o---o-oo--o--|oo-o---o-oo--o--|o--o---o-oo--o--|o--o-o-o--------|

|1 + 2 + 3 + 4 + |1 + 2 + 3 + 4 + |1 + 2 + 3 + 4 + |1 + 2 + 3 + 4 + |

 

 

C |XXXXC-------C---|XXXXC-------C---|XXXXC-------C---|X-X-X-X-C-----------------------|

T |----------------|----------------|----------------|------------11111-1-2-2---3-4-4-|

S |----o-------o---|----o-------o---|----o-------o---|--------o---------------o-------|

B |oooo---------o--|oooo-------o-o--|oooo------oo-o--|o-o-o-o-o-o-o-o-o-o-o-o-o-o-o-o-|

|1 + 2 + 3 + 4 + |1 + 2 + 3 + 4 + |1 + 2 + 3 + 4 + |1 + 2 + 3 + 4 + |

 

 

C |XXXXC-------C---|XXXXC-------C---|XXXXC-------C---|X-----C-----C---|

R |----------------|----------------|----------------|--r-r---r-r-----|

H |--------0-------|--------0-------|--------0-------|----------------|

S |----o-------o---|----o-------o---|----o-------o---|---o--o-----o-oo|

B |oooo---------o--|oooo-------o-o--|oooo------oo-o--|ooo--d--oo-d-o--|

|1 + 2 + 3 + 4 + |1 + 2 + 3 + 4 + |1 + 2 + 3 + 4 + |1 + 2 + 3 + 4 + |

 

 

C |X---------------|X---------------|X---------------|X-----X-----C---|

R |----------------|----------------|----------------|--r-r---r-r-----|

H |----0---0---0---|----0---0---0---|----0---0---0---|----------------|

S |---o--------o---|---o--------o-oo|---o--------o-oo|---o--o-----o-oo|

B |ooo--oo---oo-o--|ooo---oo--oo-o--|ooo--oo---oo-o--|ooo--d--oo-d-o--|

|1 + 2 + 3 + 4 + |1 + 2 + 3 + 4 + |1 + 2 + 3 + 4 + |1 + 2 + 3 + 4 + |

 

 

C |X---------------|X---------------|X---------------|X-----------X---C---------------|

R |----------------|----------------|----------------|----r---r-----------------------|

H |----0---0---0---|----0---0---0---|----0---0---0---|--------------------------------|

T |----------------|----------------|----------------|------------------223-3-----4-4-|

S |---o--------o-oo|----o-------o-oo|---o--------o-oo|------o-----o---o-------o-o-----|

B |ooo--oo---oo-o--|oooo--oo--oo-o--|ooo--oo---oo-o--|o-o-o-----oo--------------------|

|1 + 2 + 3 + 4 + |1 + 2 + 3 + 4 + |1 + 2 + 3 + 4 + |1 + 2 + 3 + 4 + |

 

 

C |X---X---X---X---|X---X---X---X---|X---X---X---X---|X-------X-------X---------------|

T |----------------|----------------|----------------|------------------1-2-2-3-3-4-4-|

S |----o-------o-oo|----o-------o-oo|----o-------o-oo|--------o---oooo----------------|

B |oooo--oo--oo-o--|oooo--oo--oo-o--|oooo--oo--oo-o--|o-o-o-o---------o---------------|

|1 + 2 + 3 + 4 + |1 + 2 + 3 + 4 + |1 + 2 + 3 + 4 + |1 + 2 + 3 + 4 + |

 

 

C |X---X---X---X---|X---X---X-----XX|X---X---X---X---|X-----C-----X---|----------------|

R |----------------|----------------|----------------|--r-r---r-r---r-|----------------|

T |----------------|----------------|----------------|----------------|---0#-----------|

S |----o-------o-oo|----o-----o-oo--|----o-------o-oo|---o--o-----o---|foo-------------|

B |oooo--oo--oo-o--|o-oo--oooooooooo|oooo--oo--oo-o--|ooo--d--oo-d-o-d|---o------------|

|1 + 2 + 3 + 4 + |1 + 2 + 3 + 4 + |1 + 2 + 3 + 4 + |1 + 2 + 3 + 4 + |1 + 2 + 3 + 4 + |

 

 

Return to my Mudvayne drum tabs page

The Tablature is Copyright its respective owners.

Sign Up For My Newsletter
Subscribe | Unsubscribe

Site Map | Disclaimer | Privacy Policy | Media Kit | Submissions/Corrections

Website © 2000-2014 mattsmusicpage.com. All rights reserved.

Legal & DMCA: Matt's Music Page has been providing lyrics and tabs in a legal way, paying royalties each year to a few organizations. Then, all lyrics and tabs were removed from the site. Now, there's a new owner to the site, which purchased it August 26, 2014, and he is in negotiation to obtain licensing from BMI at the moment. If you have a specific DMCA request -- please do not hesitate to contact me via the contact button on top. I will do my very best to keep this site fully legal.

Get our toolbar!

 

Hard Rock Pin Las Vegas 4th of july red white and blue guitar
$5.0
Hard Rock Pin Las Vegas 4th of july red white and blue guitar picture


Hard Rock Pin Hollywood Fl Bell Girl with dice luggage and guitar
$5.0
Hard Rock Pin Hollywood Fl Bell Girl with dice luggage and guitar picture


Hard Rock Pin Las Vegas King of Clubs Guitar rare only 3 lines of info on back
$5.0
Hard Rock Pin Las Vegas King of Clubs Guitar rare only 3 lines of info on back picture


Hard Rock Pin Edmonton guitar pin
$5.0
Hard Rock Pin Edmonton guitar pin picture


Lladro Guitar Boy #4614 - Beautiful Piece of Lladro
$109.0
Lladro Guitar Boy #4614 - Beautiful Piece of Lladro picture