Your One-Stop Source For
Music Lyrics
Bass and Guitar Tabs
and More...
Music Lyrics Bass and Guitar Tabs

 

The Guitar Tabs Are Below

Learn To Read Tab
Chords Handbook
Corrections & Additions
Get Official Tab
Mudvayne tabs @ 911Tabs

Band- Mudvayne

Song- Fucking Determined

 

this is mudvayne's new single and it is an awsome song. this song is super easy

to play. TUNING (CGCFAD)

D------------------| (INTRO)

A------------------| repeat an needed

F------------------|

C------------------|

G------------------|

C-2222333355558888-

after intro play this....this is also the chorus

D----------------------------------|

A----------------------------------|

F----------------------------------|

C----------------------------------|

G-0-3-0-3-0-3-0-3-6-0--0-5h6p0-6-0-|

C-0-3-0-3-0-3-0-3-6-0--0-5h6p0-6-0-|

 

D-------------------1-1-1-1-| (VERSE) repeat as needed

A-------------------4-4-4-4-|

F---------------------------|

C---------------------------|

G-2-2-2-0-2-0-22222---------|

C-2-2-2-0-2-0-22222---------|

 

D----------------------------------|

A----------------------------------|

F----------------------------------| (CHORUS)

C----------------------------------|

G-0-3-0-3-0-3-0-3-6-0--0-5h6p0-6-0-|

C-0-3-0-3-0-3-0-3-6-0--0-5h6p0-6-0-|

 

D-------------------1-1-1-1-| (VERSE) repeat as needed

A-------------------4-4-4-4-|

F---------------------------|

C---------------------------|

G-2-2-2-0-2-0-22222---------|

C-2-2-2-0-2-0-22222---------|

 

D----------------------------------|

A----------------------------------|

F----------------------------------| (CHORUS)

C----------------------------------|

G-0-3-0-3-0-3-0-3-6-0--0-5h6p0-6-0-|

C-0-3-0-3-0-3-0-3-6-0--0-5h6p0-6-0-|

 

then you get to the bridge and just use these three keys over and over...just listen

to the song and you can probably figure it out..IM TO LAZY TO TAB THE REST OUT

 

D-------|

A-------|

F-------|

C-------|

G-2-0-6-|

C-2-0-6-|

 

after bridge start over from the top...well, that is it, this is an awsome song by mudvayne..

just listen to the song and you should be fine...

 

Return to my Mudvayne tabs page

The Tablature is Copyright its respective owners.

Sign Up For My Newsletter
Subscribe | Unsubscribe

Site Map | Disclaimer | Privacy Policy | Media Kit | Submissions/Corrections

Website © 2000-2014 mattsmusicpage.com. All rights reserved.

Legal & DMCA: Matt's Music Page has been providing lyrics and tabs in a legal way, paying royalties each year to a few organizations. Then, all lyrics and tabs were removed from the site. Now, there's a new owner to the site, which purchased it August 26, 2014, and he is in negotiation to obtain licensing from BMI at the moment. If you have a specific DMCA request -- please do not hesitate to contact me via the contact button on top. I will do my very best to keep this site fully legal.

Get our toolbar!

 

1939 LYRIC THEATRE New York PHOTO
$5.83
1939 LYRIC THEATRE New York PHOTO picture


Star Spangled Banner or Marines Hymn lyrics signed by WWII Charles W. Lindberg
$10.0
Star Spangled Banner or Marines Hymn lyrics signed by WWII Charles W. Lindberg picture


OLD LARGE HISTORIC PHOTO OF THE LYRIC THEATRE, SYDNEY c1930s, WAR BONDS BOOTH
$7.42
OLD LARGE HISTORIC PHOTO OF THE LYRIC THEATRE, SYDNEY c1930s, WAR BONDS BOOTH picture


SONG OF REVOLUTION CARD SET WITH 13 MOST FAVORED COMMUNIST SONGS LYRICS + NOTES
$24.99
SONG OF REVOLUTION CARD SET WITH 13 MOST FAVORED COMMUNIST SONGS LYRICS + NOTES picture


OLD LARGE HISTORIC PHOTO OF THE LYRIC THEATRE, SYDNEY c1930s, WAR LOANS BOOTH
$7.42
OLD LARGE HISTORIC PHOTO OF THE LYRIC THEATRE, SYDNEY c1930s, WAR LOANS BOOTH picture