Your One-Stop Source For
Music Lyrics
Bass and Guitar Tabs
and More...
Music Lyrics Bass and Guitar Tabs

 

The Tabs Are Below

Learn To Read Tab
Chords Handbook
Corrections & Additions
Get Official Tab
Mudvayne tabs @ 911Tabs

Band: Mudvayne

Song: Forget to Remember

Album: Lost and Found

Drummer: Spug

Tabber: Chris drum4life_21@hotmail.com Please rate!!!!!

 

C: Cymbals

X: Crash

C: China

S: Splash

#: Choke Cymbal

H: High Hat

0: Open High Hat

h: Closed High Hat

#: Close Hight Hat With Foot

R: Ride Cymbal

r: Hit Ride Cymbal

b: Bell on Ride Cymbal

T: Toms

1: High Tom

2: Low-High Tom

3: Mid Tom

4: High-Floor Tom

5: Low-Floor Tom

S: Snare

o: Hit Snare

g: Ghost Note on Snare

B: Bass Drums

o: Hit Bass Drum

d: Double Bass

 

 

C |X---------------|X-----------X---|X---------------|---X-X------C---|

R |--r-r-r-r-r-r-r-|--r-r-r-r-r---r-|--r-r-r-r-r-r-r-|----------------|

H |----------------|----------------|----------------|----------0#----|

S |----o--o----o--o|----o--o----o-oo|----o--o----o---|ooo--o-foo--oooo|

B |oooo-o--ooo-oooo|oooo-o--oooo-o--|oooo-o--ooo-oooo|---o------o-----|

|1 + 2 + 3 + 4 + |1 + 2 + 3 + 4 + |1 + 2 + 3 + 4 + |1 + 2 + 3 + 4 + |

 

 

C |X---------------|X---------------|X---------------|X---------------|

H |----0---0---0---|----0---0---0---|----0---0---0---|----0---0----0#-|

S |----o-------o--o|----o-------o--o|----o-------o--f|----o-------f---|

B |oooo-o-o-o-o-o--|oooooooo-o-o-o--|oooo-o-o-o-o-o--|oooooooo-o-o-o--|

|1 + 2 + 3 + 4 + |1 + 2 + 3 + 4 + |1 + 2 + 3 + 4 + |1 + 2 + 3 + 4 + |

 

 

C |----------------|----------------|----------------|----------------|

S |----------------|----------------|----------------|----------------|

B |----------------|----------------|----------------|----------------|

|1 + 2 + 3 + 4 + |1 + 2 + 3 + 4 + |1 + 2 + 3 + 4 + |1 + 2 + 3 + 4 + |

 

 

C |X-------------------------------|--------------------------------|

S |--ooo-o-O-o-ooooo-o-o-o-O-o-o-o-|ooooooooO-o-ooooo-o-o-o-O-o-o-o-|

B |o---------------o-----o---------|o---------------o-----o---o-----|

|1 + 2 + 3 + 4 + |1 + 2 + 3 + 4 + |

 

 

C |X-------------------------------|------------------------X-------|

S |--ooo-o-O-o-ooooo-o-o-o-O-o-o-o-|ooooooooO-o-ooooo-o-o---O---O-O-|

B |o---------------o-----o---------|o---------------o-----o---o-----|

|1 + 2 + 3 + 4 + |1 + 2 + 3 + 4 + |

 

 

C |X---------------|------------X---|X---C-----------|--------S---X--X|

H |--h-h-h-h-0#h-h-|0#h-h-h-h-h---0-|--h---h-h-0#h-h-|h-h-h-h---H-----|

S |----o-------o---|----o--d----o-oo|----o-------o--d|----o--o----o-f-|

B |o--o---o-oo--o-o|o--o-o--oo-o-o--|o--o---o-oo--o--|oo-o-o--o--o-o-o|

|1 + 2 + 3 + 4 + |1 + 2 + 3 + 4 + |1 + 2 + 3 + 4 + |1 + 2 + 3 + 4 + |

 

 

C |X---C-----------|------------X---|X---------------|--------C-------|

H |--h---h-h-0#h-h-|h-h-h-h-h-H---H-|--h-h-h-h-0#h-h-|h-H-H-0---------|

S |----o-------o--d|----o--d----o---|----o-------o--d|----o---o-fooooo|

B |o--o---o-oo--o--|oo-o-o--oo-o-o--|o--o---o-oo--o--|oo-o-o-o--------|

|1 + 2 + 3 + 4 + |1 + 2 + 3 + 4 + |1 + 2 + 3 + 4 + |1 + 2 + 3 + 4 + |

 

 

C |X---------------|X-----------X---|X---------------|X--X--CC-CC-X---|

R |--r-r-r-r-r-r-r-|--r-r-r-r-r---r-|--r-r-r-r-r-r-r-|----------------|

H |----------------|----------------|----------------|----------------|

S |----o--o----o--o|----o--o----o-oo|----o--o----o---|o--o--oo-oo-oooo|

B |oooo-o--ooo-oooo|oooo-o--oooo-o--|oooo-o--ooo-oooo|-oo-oo--o--o----|

|1 + 2 + 3 + 4 + |1 + 2 + 3 + 4 + |1 + 2 + 3 + 4 + |1 + 2 + 3 + 4 + |

 

 

C |X---------------|X---------------|X---------------|X---------------|

H |----0---0---0---|----0---0---0---|----0---0---0---|----0---0---0---|

S |----o-------o--o|----o-------o--o|----o-------o--o|----o-------o---|

B |oooo-o-o-o-o-o--|oooooooo-o-o-o--|oooo-o-o-o-o-o--|oooooooo-o-o-o-d|

|1 + 2 + 3 + 4 + |1 + 2 + 3 + 4 + |1 + 2 + 3 + 4 + |1 + 2 + 3 + 4 + |

 

Not Sure of the Tom Part, but it works

C |X---------------|----------------|X---------------|------------------------X-------|

T |-3--2-22--2-33--|2--3--2-33--1123|-3--2-22--2-33--|2-----3-----2---3-3-------11----|

T |4-4-3---3-3---4-|3-4-4-3---4-2---|4-4-3---3-3---4-|3---4---4---3-------4-------2---|

S |----------------|----------------|----------------|------------------------o-----o-|

B |---o-o---o-o---o|-o---o-o---o-o--|---o-o---o-o---o|--o-------o---o-------o---------|

|1 + 2 + 3 + 4 + |1 + 2 + 3 + 4 + |1 + 2 + 3 + 4 + |1 + 2 + 3 + 4 + |

 

 

C |X---------------|----------------|X---C-----------|X-----------X---|

H |--h-h-h-h-0#h-h-|h-h-h-h-0#h-h-h-|--h---h-h-0#h-h-|--h-h-h-h-H-----|

S |----o-------o--d|----o--o----o--d|----o-------o--d|----o--d-d--o-oo|

B |o--o---o-oo--o--|oo-o-o--o--o-o--|o--o---o-oo--o--|oo-o-o--o-oo-o--|

|1 + 2 + 3 + 4 + |1 + 2 + 3 + 4 + |1 + 2 + 3 + 4 + |1 + 2 + 3 + 4 + |

 

 

C |X---C-----------|------------X---|X---------------|X---C-----X-----|

H |--h---h-h-0#h-h-|h-h-h-h-H-H-----|--h-h-h-h-0#h-h-|--0---0---------|

S |----o-------o--d|----o--o----o-oo|----o-------o--d|----o---oo--fooo|

B |o--o---o-oo--o--|oo-o-o--oo-o-o--|o--o---o-oo--o--|oo-o-o-o--o-----|

|1 + 2 + 3 + 4 + |1 + 2 + 3 + 4 + |1 + 2 + 3 + 4 + |1 + 2 + 3 + 4 + |

 

 

C |X-----------X---|X-----------X---|X-----------X---|---X-X------C---|

R |--r-r-r-r-r---r-|--r-r-r-r-r---r-|--r-r-r-r-r---r-|----------------|

H |----------------|----------------|----------------|----------0#----|

S |----o--o----o--o|----o--o----o-oo|----o--o----o---|ooo--o-foo--oooo|

B |oooo-o--ooo-oooo|oooo-o--oooo-o--|oooo-o--ooo-oooo|---o------o-----|

|1 + 2 + 3 + 4 + |1 + 2 + 3 + 4 + |1 + 2 + 3 + 4 + |1 + 2 + 3 + 4 + |

 

 

C |X---------------|X---------------|X---------------|X---C-----------|

H |----0---0---0---|----0---0---0---|----0---0---0---|----------------|

T |----------------|----------------|----------------|--------11223344|

S |----o-------o--o|----o-------o--o|----o-------o--f|----o-dd--------|

B |oooo-o-o-o-o-o--|oooooooo-o-o-o--|oooo-o-o-o-o-o--|oooooooooooooooo|

|1 + 2 + 3 + 4 + |1 + 2 + 3 + 4 + |1 + 2 + 3 + 4 + |1 + 2 + 3 + 4 + |

 

 

C |X-X-X-X-X-X-X---|X-X---X-X-X-----|X-X-X-X-X-X-X---|X---X---X---X---C---------------|

T |---1-----2----43|---12------23344|---1-----2----43|------1-----------212-323-3-4-4-|

S |------o-----o---|--------o-------|------o-----o---|------------o---o---------------|

B |o----d-----d-o--|o----o-o--------|o----d-----d-o--|o---------oo--o-----------------|

|1 + 2 + 3 + 4 + |1 + 2 + 3 + 4 + |1 + 2 + 3 + 4 + |1 + 2 + 3 + 4 + |

 

 

C |X---------------|X---------------|X---------------|X---------------|

R |--r-r---r-r---r-|--r-r-r---r-r-r-|--r-r---r-r---r-|--r---r---------|

H |---0-0-0-0-0-0-0|-0-0-0-0-0-0-0-0|-0-0-0-0-0-0-0-0|-0-0-0-0-0-0----|

S |------o-----o---|--------o-------|------o-----o---|----o---o-o-oooo|

B |o--o-o----o--o-o|o--d-o-o---o-o-o|o--o-o----o--o-o|o--d-o-d--------|

|1 + 2 + 3 + 4 + |1 + 2 + 3 + 4 + |1 + 2 + 3 + 4 + |1 + 2 + 3 + 4 + |

 

 

C |X#--------------|X-----------C---|X-----------C---|X---------------|

H |----------------|----0---0-------|----0---0-------|----0---0--#----|

S |----------------|----o-------o---|----o-------o-oo|----o------o----|

B |o---------------|o--d-o-o--o-----|o--d-o-o--o--o--|o--d-o-o--o-----|

|1 + 2 + 3 + 4 + |1 + 2 + 3 + 4 + |1 + 2 + 3 + 4 + |1 + 2 + 3 + 4 + |

 

 

C |X-------------------C-------X---|

H |--------0-------0---------------|

S |--------o-----------o---oo--o-o-|

B |o-o---oo--o---o-----------oo----|

|1 + 2 + 3 + 4 + |

 

 

C |X---------------|X-----------X---|X---------------|X--X--CC-CC-X---|

R |--r-r-r-r-r-r-r-|--r-r-r-r-r-----|--r-r-r-r-r-r-r-|----------------|

H |----------------|----------------|----------------|----------------|

S |----o--o----o--o|----o--o----o-dd|----o--o----o---|o--o--oo-oo-oooo|

B |oooo-o--ooo-oooo|oooo-o--oooo-o--|oooo-o--ooo-oooo|-oo-oo--o--o----|

|1 + 2 + 3 + 4 + |1 + 2 + 3 + 4 + |1 + 2 + 3 + 4 + |1 + 2 + 3 + 4 + |

 

 

C |X---------------|X---------------|X---------------|X-------------------------------|

H |----0---0---0---|----0---0---0---|----0---0---0---|--------0-----------------------|

T |----------------|----------------|----------------|----------------1-1-2-223-3-4-4-|

S |----o-------o--o|----o-------o--o|----o-------o--o|--------o---oooo----------------|

B |oooo-o-o-o-o-o--|oooooooo-o-o-o--|oooo-o-o-o-o-o--|o-o-o-o-o-o-o-o-o-o-o-o-o-o-o-o-|

|1 + 2 + 3 + 4 + |1 + 2 + 3 + 4 + |1 + 2 + 3 + 4 + |1 + 2 + 3 + 4 + |

 

 

C |X-X-X-X-X-X-X-X-|X-X-X-X-X-X-C--X|X-X-X-X-X-X-X---|X-X-X-X-X-X-C---|

S |----o----o--o--o|----o----o--o-f-|----o----o--o-dd|----o--o----o-oo|

B |o--d--oo---d-o--|oo-o--oo---d-o-o|o--o--oo---d-o--|o--d-o--oo-d-o--|

|1 + 2 + 3 + 4 + |1 + 2 + 3 + 4 + |1 + 2 + 3 + 4 + |1 + 2 + 3 + 4 + |

 

 

C |X-X-X-X-X-X--XXX|X-X-X-X-X-X-C---|X-X-X-X-X-X-C---|X-X-C-X-X-X-C-X-|

S |----o----o--f---|----o---o---o-oo|---o--o--o--oooo|----o-------o---|

B |o--d--oo---o-ooo|o--d--dd-o-d-o--|o----d-----d----|oooooooooooooooo|

|1 + 2 + 3 + 4 + |1 + 2 + 3 + 4 + |1 + 2 + 3 + 4 + |1 + 2 + 3 + 4 + |

 

 

C |----------------|X---------------|

H |---0#------0#---|----0---0-----0#|

S |foo--fooooo-----|----o-------fo--|

B |---o-------o----|o--d-o-oo-o---o-|

|1 + 2 + 3 + 4 + |1 + 2 + 3 + 4 + |

 

 

Return to my Mudvayne drum tabs page

The Tablature is Copyright its respective owners.

Sign Up For My Newsletter
Subscribe | Unsubscribe

Site Map | Disclaimer | Privacy Policy | Media Kit | Submissions/Corrections

Website © 2000-2014 mattsmusicpage.com. All rights reserved.

Legal & DMCA: Matt's Music Page has been providing lyrics and tabs in a legal way, paying royalties each year to a few organizations. Then, all lyrics and tabs were removed from the site. Now, there's a new owner to the site, which purchased it August 26, 2014, and he is in negotiation to obtain licensing from BMI at the moment. If you have a specific DMCA request -- please do not hesitate to contact me via the contact button on top. I will do my very best to keep this site fully legal.

Get our toolbar!