Your One-Stop Source For
Music Lyrics
Bass and Guitar Tabs
and More...
Music Lyrics Bass and Guitar Tabs

 

The Guitar Tabs Are Below

Learn To Read Tab
Chords Handbook
Corrections & Additions
Get Official Tab
Mudvayne tabs @ 911Tabs

Mudvayne - Evolutionary Fetus

Tabbed By: danhasAIDS

Email: evilmaggot106@hotmail.com

 

Tuning: Drop B (B F# B E G# C#)

 

 

 

intro

C#|---------------------------------------------------------------------------||

G#|---------------------------------------------------------------------------||

E|---------------------------------------------------------------------------||

B|--3-5---666----8-9----repeat 3 times then--3----------------------------------------------------------||

F#|--3-5---666---8----------------------------3-4-5-9-1----------------------------------||

B|--3-5---666--7-----------------------------3--------------------------------------||

 

verse(slight distortion)

C#|-------------------------------------0--------------------------------------||

G#|----------------6---------------6----3----------------------------------------||

E|--3--3----3--3-----3-0-3-0-3---------2-----------------------------------------------||

B|-------4----------------------4------0----------------------------------------||

F#|-------------------------------------0--------------------------------------||

B|-------------------------------------0--------------------------------------||

 

pre chorus

C#|---------------------------------------------------------------------------||

G#|---------------------------------------------------------------------------||

E|---------------------------------------------------------4-5-----------------||

B|---------------------------------------------------------5-6-----------------||

F#|-------12/13--12/14--12/16^(bend all the fucking way up)-4-5-----------------------------------------------------------------||

B|---------------------------------------------------------------------------||

 

chorus

C#|---------------------------------------------------------------------------||

G#|---------------------------------------------------------------------------||

E|-------------6/11-------------9/5-------------------------------------------------||

B|-00---4-4-7--x-x--22--6-6-9---x---------------------------------------------------------||

F#|-00---4-4-7--4/9--22--6-6-9---7/3----------------------------------------------------------||

B|-00---4-4-7-------22--6-6-9----------------------------------------------------------||

 

bridge

C#|----------------8-----------------------11------------------------------------||

G#|---------------7------------------------------------------------------------||

E|-----5-------7-----repeat once then-----8-----------------------------------------------------||

B|---4---4---6----------------------------11--------------------------------------||

F#|-3-------3------------------------------9-------------------------------------||

B|----------------------------------------11-----------------------------------||

 

end with chorus riff

 

 

 

Return to my Mudvayne tabs page

The Tablature is Copyright its respective owners.

Sign Up For My Newsletter
Subscribe | Unsubscribe

Site Map | Disclaimer | Privacy Policy | Media Kit | Submissions/Corrections

Website © 2000-2014 mattsmusicpage.com. All rights reserved.

Legal & DMCA: Matt's Music Page has been providing lyrics and tabs in a legal way, paying royalties each year to a few organizations. Then, all lyrics and tabs were removed from the site. Now, there's a new owner to the site, which purchased it August 26, 2014, and he is in negotiation to obtain licensing from BMI at the moment. If you have a specific DMCA request -- please do not hesitate to contact me via the contact button on top. I will do my very best to keep this site fully legal.

Get our toolbar!