Your One-Stop Source For
Music Lyrics
Bass and Guitar Tabs
and More...
Music Lyrics Bass and Guitar Tabs

 

The Guitar Tabs Are Below

Learn To Read Tab
Chords Handbook
Corrections & Additions
Get Official Tab
Mudvayne tabs @ 911Tabs

Artist: MuDvAyNe

Song: Dig (acoustic)

Album: Unreleased

 

This is weird...

 

INTRO

---------------------

---------------------

-----8-----3/8-----8-

-2-2-0-2-2-----2-2-0-

-2-2---2-2-----2-2---

-0-0---0-0-----0-0---

 

MAIN RIFF

-----*------------------------------

-----*------------------------------

-----*------------------------------

-444-*-4444-2222-555--4444-2222-555-

-444-*-4444-2222-555--4444-2222-555-

-222-*-2222-0000-333--2222-0000-333-

 

RIFF 2 (x10)

----

----

----

-0--

-12-

-10-

 

FILL (throw this in at random during the main riff)

-------

-------

-----8-

-----0-

-0-0---

-0-0---

 

INTERLUDE ("you ain't f-ing changin' me!")

---------------

---------------

---------------

-7-6-5-4-3-3-2-

-7-6-5-4-3-3-2-

-5-4-3-2-1-1-0-

 

ENDING RIFF

------------------------------------------

------------------------------------------

------------------------------------------

-2-2-2-2-2-2-2-2--22-22-22-22-22-22-22-22-

-2-2-2-2-2-2-2-2--22-22-22-22-22-22-22-22-

-0-0-0-0-0-0-0-0--00-00-00-00-00-00-00-00-

 

CHORD (play this once at the end of the end of the song)

-0-

-0-

-0-

-2-

-2-

-0-

 

 

 

Return to my Mudvayne tabs page

The Tablature is Copyright its respective owners.

Sign Up For My Newsletter
Subscribe | Unsubscribe

Site Map | Disclaimer | Privacy Policy | Media Kit | Submissions/Corrections

Website © 2000-2014 mattsmusicpage.com. All rights reserved.

Legal & DMCA: Matt's Music Page has been providing lyrics and tabs in a legal way, paying royalties each year to a few organizations. Then, all lyrics and tabs were removed from the site. Now, there's a new owner to the site, which purchased it August 26, 2014, and he is in negotiation to obtain licensing from BMI at the moment. If you have a specific DMCA request -- please do not hesitate to contact me via the contact button on top. I will do my very best to keep this site fully legal.

Get our toolbar!

 

VINTAGE SORRENTO MUSIC JEWELRY BOX
$45.0
VINTAGE SORRENTO MUSIC JEWELRY BOX picture


VINTAGE LACQUERED MUSIC BOX JAPAN
$25.99
VINTAGE LACQUERED MUSIC BOX JAPAN picture


Vintage Kehlsteinhaus Bavaria Germany Colorscope Cow Bell View Master Music Box
$8.99
Vintage Kehlsteinhaus Bavaria Germany Colorscope Cow Bell View Master Music Box picture


VINTAGE SCHMIDT Signed Collectible Musical Turning Clown
$9.99
VINTAGE  SCHMIDT Signed Collectible Musical Turning Clown picture


Vintage - Linen - Postcard - Stage - Radio City Music Hall - New York City
$3.75
Vintage - Linen - Postcard - Stage - Radio City Music Hall - New York City   picture