Your One-Stop Source For
Music Lyrics
Bass and Guitar Tabs
and More...
Music Lyrics Bass and Guitar Tabs

 

The Tabs Are Below

Learn To Read Tab
Chords Handbook
Corrections & Additions
Get Official Tab
Mudvayne tabs @ 911Tabs

This is my bass tabs for "Determined"

 

Artist: Mudvayne

Song: Determined

Instrument: Bass

Tuning: C G C F (Low to High)

 

~ Vibrato

/ Slide up

\ Slide down

// Shift Slide

 

 

Intro (0:00)

[-----------|-----------|-----------|----------------]

[-----------|-----------|-----------|----------------]

[-----------|-----------|-----------|----------------]

[2222-------|2222-------|2222-------|2222-0//15\\0---]

 

(0:08)

[------------------]

[------------------]

[------------------]

[-2222333355558888-]

 

Chorus (0:15)

[----------------------------------]X3

[----------------------------------]

[----------------------------------]

[-0-3-0-3-0-3-0-3/6-0----0-6-0-8~--]

 

[-----------------------------------]X1

[-----------------------------------]

[-----------------------------------]

[-0-3-0-3-0-3-0-3/6-0----0-6-0-8//--]

 

Verse (0:30)

[----------------------------------------] \

[----------------------------------------] \

[-----------------------x-----x----------] \

[-2222---0-2-0--2220-/8-x-0-7---8-7-9//--] \

\

[-----------------------------------------------] \

[-----------------------------------------------] Repeat

[----------------------7-------7---8------------] / twice

[-2222--0-0/8--2220---x--8-x-6---8----9//-------] /

 

 

 

 

(1:30)

[----------------------------------]

[----------------------------------]

[----------------------------------]

[-2222--002222--002222—00777755-0--]

 

[----------------------------------]

[----------------------------------]

[----------------------------------]

[-2222--002222--002222—00777755-0--]

 

[----------------------------------]

[----------------------------------]

[----------------------------------]

[-2222--0-2222--0-2222-0-777755-0--]

 

[----------------------------------]

[----------------------------------]

[----------------------------------]

[-2222--0-2222--0-2222-0-777755-0--]

 

(1:45)

[-------------------------------------]

[-------------------------------------]

[-------------------------------------]

[-2222---5202--5202--52025202—520202--]

 

[------------------------------------]

[------------------------------------]

[------------------------------------]

[-2-2--5202--5202----2-2--5202--5202-]

 

[----------------------------------]

[----------------------------------]

[----------------------------------]

[-2-2-0250202---22887755-----------]

 

Intro To Chorus (1:53)

[-----------|-----------|-----------|----------------]

[-----------|-----------|-----------|----------------]

[-----------|-----------|-----------|----------------]

[2222-------|2222-------|2222-------|2222-0//15\\0---]

 

well im sure thats how it goes but im not 100% sure

Return to my Mudvayne bass tabs page

The Tablature is Copyright its respective owners.

Sign Up For My Newsletter
Subscribe | Unsubscribe

Site Map | Disclaimer | Privacy Policy | Media Kit | Submissions/Corrections

Website © 2000-2014 mattsmusicpage.com. All rights reserved.

Legal & DMCA: Matt's Music Page has been providing lyrics and tabs in a legal way, paying royalties each year to a few organizations. Then, all lyrics and tabs were removed from the site. Now, there's a new owner to the site, which purchased it August 26, 2014, and he is in negotiation to obtain licensing from BMI at the moment. If you have a specific DMCA request -- please do not hesitate to contact me via the contact button on top. I will do my very best to keep this site fully legal.

Get our toolbar!

 

CA PHOTO bde-128 Rolling Stones Music Group
$17.0
CA PHOTO bde-128 Rolling Stones Music Group picture


Rolling stones postcard
$0.75
Rolling stones postcard picture


ROCK N ROLL COMICS GUNS N ROSES METALLICA MOTLEY CRUE THE ROLLING STONES 1 2 4 6
$9.99
ROCK N ROLL COMICS GUNS N ROSES METALLICA MOTLEY CRUE THE ROLLING STONES 1 2 4 6 picture


A & B.C. GUM 1965 SCARCE CARD # 35 ROLLING STONES--ROLLING STONES " A NICE CARD
$7.8
A & B.C. GUM 1965 SCARCE CARD  # 35 ROLLING STONES--ROLLING STONES


Rolling Stones Zippo Windproof Lighter
$18.0
Rolling Stones Zippo Windproof Lighter picture