Your One-Stop Source For
Music Lyrics
Bass and Guitar Tabs
and More...
Music Lyrics Bass and Guitar Tabs

 

The Tabs Are Below

Learn To Read Tab
Chords Handbook
Corrections & Additions
Get Official Tab
MMB tabs @ 911Tabs

Artist: Mighty Mighty Bosstones

Song: You Gotta Go

Album: A Jackknife To A Swan

Tabbed By: Ingramosch

 

Some parts might be slightly different, but hey - what do you expect

a bass player to tab out for guitar :D I haven't listed up how many

times you have to play a part, but I think you get the point while

reading the tab :D Most of the chords are stummed, but I haven't

mentioned it in the Tab.

 

 

INTRO/CHORUS:

 

E ----------------------------------------

B -----------------------------------------

G -3--8--10--3--5-----3--8--10--3--6-----4--

D -3--8--10--3--5--3--3--8--10--3--6--4--4--

A -1--6---8--1--3--3--1--6---8--1--4--4--2--

E -----------------1------------------2-----

 

VERSE

 

Repeat the first hald several timess then 2 times the second half

 

E --------------------------

B --------------------------

G -3---------6-6------5--8--

D -3--4-4-7-7----7-7--5--8--

A -1------------------3--6--

E ---------------------------

 

Pre-Chorus:

 

E -----------------

B -----------------

G -3-----8--9--10--

D -3--3--8--9--10--

A -1--3--6--7--8---

E ----1------------

 

Bridge

 

E ------------------

B ------------------

G -3----------------

D -3----------------

A -1--7-4-6-4-6----

E --------------4--

 

Return to my to my MMB tabs page

The Tablature is Copyright its respective owners.

Sign Up For My Newsletter
Subscribe | Unsubscribe

Site Map | Disclaimer | Privacy Policy | Media Kit | Submissions/Corrections

Website © 2000-2014 mattsmusicpage.com. All rights reserved.

Legal & DMCA: Matt's Music Page has been providing lyrics and tabs in a legal way, paying royalties each year to a few organizations. Then, all lyrics and tabs were removed from the site. Now, there's a new owner to the site, which purchased it August 26, 2014, and he is in negotiation to obtain licensing from BMI at the moment. If you have a specific DMCA request -- please do not hesitate to contact me via the contact button on top. I will do my very best to keep this site fully legal.

Get our toolbar!