Your One-Stop Source For
Music Lyrics
Bass and Guitar Tabs
and More...
>Music Lyrics Bass and Guitar Tabs

 

The Tabs Are Below

Learn To Read Tab
Chords Handbook
Corrections & Additions
Get Official Tab
Matchbox 20 tabs @ 911Tabs

Matchbox Twenty

Rest Stop

 

Artist: Matchbox 20

Song: Rest Stop

Album: Mad Season

Transcribed By: Ryan Short

 

Intro Em, G, D, Em

 

Verse

Em G

just 3 miles, from the rest stop

D Em

And she slams on the breaks

Em G

She said I tried to be but I'm not

D Em

And could you please collect your things

 

Pre-chorus

D

Well I don't wanna be cold, I don't wanna be cruel

Em

But I gotta find more than what's happened with you

C

So if you'd - open up the door

CHORUS

G

She said - while you were sleeping

D

I was listening to the radio and wondering what you're dreaming

Em D C

when it came to mind that I didn't care

it came to mind that I didn't care

G

So I thought - hell if it's over

D

I had better end it quick or I could lose my nerve

Em D A

Are you listening - Can you hear me

C

Have you forgotten

Verse

Em G

Just 3 miles from the rest stop

D Em

And my mouth's too dry to rage

Em G

The light was shining from the radio

D Em

I could barely see her face

Pre-chorus

D

But she knew all the words that I never had said

Em

She knew the crumbled up promise of this

C

broken down man - As I opened up my door

(chorus)

 

'SOLO' Chords are: C, D, C, D (x2)

(play both guitars at same time)

Guitar 1 distorsion

e|--------------------------------------------------------------|

B|--------------------------------------------------------------|

G|----------------7----------------------/9--7------------------|

D|--5--7----5--7-------------------5--7-------------------------|

A|--------------------------------------------------------------|

E|--------------------------------------------------------------|

Guitar 2 clean ('behind' guitar 1)

e|--------------------------------------------------------------|

B|--------------------------------------------------------------|

G|--------------------------------------------------------------|

D|--------------------------------------------------------------|

A|-----------------10--12--14--12---------------10--12--14--12--|

E|--------------------------------------------------------------|

 

Guitar 1

e|----------------------------10--10--10--/15-------------|

B|--------------------------------------------------------|

G|--------/9--7----------------7---7---7--/12-------------|

D|--5--7--------------------------------------------------|

A|--------------------------------------------------------|

E|--------------------------------------------------------|

Guitar 2

e|--------------------------------------------------------|

B|--------------------------------------------------------|

G|--------------------------------------------------------|

D|---------------10--9--7---------------------------------|

A|--------------------------------------------------------|

E|--------------------------------------------------------|

(chorus x2)

hold last 'A' chord to finish it off at the end of

second chorus.

Chords

G D C Em A

e|--3---2---0----0---0---|

B|--3---3---1----0---2---|

G|--0---2---0----0---2---|

D|--0---0---2----2---2---|

A|--2-------3----2---0---|

E|--3------------0-------|

E-mial me with any suggestions, comments or corrections,

Ryan Short

nouse4aname007@hotmail.com

 

 

 

Return to my to my Matchbox Twenty tabs page

The Tablature is Copyright its respective owners.

Sign Up For My Newsletter
Subscribe | Unsubscribe

Site Map | Disclaimer | Privacy Policy | Media Kit | Submissions/Corrections

Website © 2000-2014 mattsmusicpage.com. All rights reserved.

Legal & DMCA: Matt's Music Page has been providing lyrics and tabs in a legal way, paying royalties each year to a few organizations. Then, all lyrics and tabs were removed from the site. Now, there's a new owner to the site, which purchased it August 26, 2014, and he is in negotiation to obtain licensing from BMI at the moment. If you have a specific DMCA request -- please do not hesitate to contact me via the contact button on top. I will do my very best to keep this site fully legal.

Get our toolbar!

 

Hard Rock Pin Las Vegas 4th of july red white and blue guitar
$5.0
Hard Rock Pin Las Vegas 4th of july red white and blue guitar picture


Hard Rock Pin Hollywood Fl Bell Girl with dice luggage and guitar
$5.0
Hard Rock Pin Hollywood Fl Bell Girl with dice luggage and guitar picture


Hard Rock Pin Las Vegas King of Clubs Guitar rare only 3 lines of info on back
$5.0
Hard Rock Pin Las Vegas King of Clubs Guitar rare only 3 lines of info on back picture


Hard Rock Pin Edmonton guitar pin
$5.0
Hard Rock Pin Edmonton guitar pin picture


Lladro Guitar Boy #4614 - Beautiful Piece of Lladro
$109.0
Lladro Guitar Boy #4614 - Beautiful Piece of Lladro picture