Your One-Stop Source For
Music Lyrics
Bass and Guitar Tabs
and More...
>Music Lyrics Bass and Guitar Tabs

 

The Tabs Are Below

Learn To Read Tab
Chords Handbook
Corrections & Additions
Get Official Tab
Matchbox 20 tabs @ 911Tabs

Artist-Matchbox 20

Title- You And I And I

Tabbed By -Steve

 

Intro x2

G-----------------------------------------------------------------------------------

D-----------------------------------------------------------------------------------

A-------------------------------------------------5-5-5-5-5-5-5-5--3-3-3-3-3-3-3-3--

E-0-0-0-0-0-0-0-0--3-3-3-3-3-3-3-3--------------------------------------------------

 

Verse x1

G-----------------------------------------------------------------------------------

D-----------------------------------------------------------------------------------

A-------55-------33-------55-------33-----------------------------------------------

E--00-------33-------00-------33----------------------------------------------------

 

Chorus x4

G-----------------------------------------------------------------------------------

D-----------------------------------------------------------------------------------

A-----------------------------------------5-5-5-5-5-5-5-5--3-3-3-3-3-3-3-3---------- E-0-0-0-0-0-0-0-0--3-3-3-3-3-3-3-3--------------------------------------------------

 

Verse x1

G-----------------------------------------------------------------------------------

D-----------------------------------------------------------------------------------

A-------55-------33-------55-------33-----------------------------------------------

E--00-------33-------00-------33----------------------------------------------------

 

Chorus x5

G-----------------------------------------------------------------------------------

D-----------------------------------------------------------------------------------

A------------------------------------------5-5-5-5-5-5-5-5--3-3-3-3-3-3-3-3---------

E-0-0-0-0-0-0-0-0--3-3-3-3-3-3-3-3--------------------------------------------------

 

Fill in x1 Rest

G-------------|----------------G----------------------------------------------------

D-------------|----------------D----------------------------------------------------

A-------------|----------------A--------------------5-5-5-5-5-5-5-5--3-3-3-3-3-3-3-3 E--00---------|----------------E--3-3-3-3-3-3-3-3-----------------------------------

 

Outro x4

G-----------------------------------------------------------------------------------

D-----------------------------------------------------------------------------------

A-------------------------------------------------5-5-5-5-5-5-5-5--3-3-3-3-3-3-3-3--

E-0-0-0-0-0-0-0-0--3-3-3-3-3-3-3-3------------------------------------------------0~

 

Let the last note fade out and e-mail me at matchbox20fan75@hotmail.com with any corrections.

 

 

Return to my to my Matchbox Twenty bass tabs page

The Tablature is Copyright its respective owners.

Sign Up For My Newsletter
Subscribe | Unsubscribe

Site Map | Disclaimer | Privacy Policy | Media Kit | Submissions/Corrections

Website © 2000-2014 mattsmusicpage.com. All rights reserved.

Legal & DMCA: Matt's Music Page has been providing lyrics and tabs in a legal way, paying royalties each year to a few organizations. Then, all lyrics and tabs were removed from the site. Now, there's a new owner to the site, which purchased it August 26, 2014, and he is in negotiation to obtain licensing from BMI at the moment. If you have a specific DMCA request -- please do not hesitate to contact me via the contact button on top. I will do my very best to keep this site fully legal.

Get our toolbar!

 

Sexton Revolutionary Civil War Wall Hangings American Eagle, Powder Horn Drum
$14.29
Sexton Revolutionary Civil War Wall Hangings American Eagle, Powder Horn Drum picture


1966 Buddy De Franco Bruce Philp photo Slingerland drums photo vintage print ad
$9.99
1966 Buddy De Franco Bruce Philp photo Slingerland drums photo vintage print ad picture


Tokyo Disneyland TDR "Minnie Oh Minnie" Show Goofy w/ Blue Drum Glitter Pin
$7.99
Tokyo Disneyland TDR


VINTAGE EARLY HALLOWEEN WHISTLE DRUM BLACK CAT PAPER AND WOOD TOY 11 ½” GERMANY
$0.99
VINTAGE EARLY HALLOWEEN WHISTLE DRUM BLACK CAT PAPER AND WOOD TOY 11 ½” GERMANY picture


Giuseppe Armani "Boy with Drum" Number unknown. Gulliver's World Collection
$169.0
Giuseppe Armani