Your One-Stop Source For
Music Lyrics
Bass and Guitar Tabs
and More...
Music Lyrics Bass and Guitar Tabs

 

The Tabs Are Below

Learn To Read Tab
Chords Handbook
Corrections & Additions
Get Official Tab
Matchbox 20 tabs @ 911Tabs

PUSH by Matchbox 20

As published in Guitar World Mar 98

 

 

 

INTRO Verse

|--------|-------||-----------|-------------|-----------|------------||

|--------|-------||*----------|-------------|-----------|-----------*||

|--rest--|-------||*----------|--------3-5--|----5---5--|----3-2-3--*||

|--------|--15\--||--3-3-2-2--|--0-0-3------|--3---2----|--0---------||

\_/

 

Pre Chorus

|----------------------|---------------------|-----------------------|

|----------------------|---------------------|-----------------------|

|-5-5-5-5-5-5-5-5-5-5--|--5-5-5-5-5-5-5-5----|--3-3-3-3-3-3-3-3-3-3--|

|----------------------|------------------3--|-----------------------|

 

 

|---------------------|-----------------------|---------------------|

|---------------------|-----------------------|---------------------|

|--3-3-3-3-3-3-3-R-3--|--5-5-5-5-5-5-5-5-5-5--|--5-5-5-5-5-5-5-5----|

|---------------------|-----------------------|------------------3--|

 

 

Chorus

|---------------------|-----------||------------------|-----------------|

|---------------------|-----------||--5-5-------------|-------------2---|

|--3-3-3-3-3-3-3-r-3--|--3-5-3-5--||---------5-5---5--|--3-3--3-5-5---5-|

|---------------------|-----------||-----3-5-----5----|------5----------|

\___/

 

 

|-------------------|-------------------|-----------------------|

|--5-5--------------|-------------------|-----------------------|

|----------5-5---5--|--3-3---3-5-5-3-5--|--7-7-r-x-x-5-5-r-x-x--|

|------3-5-----5----|------5------------|-----------------------|

 

 

To CODA Guitar Solo

|---------------------|-----------------||-----------|-----------|

|---------------------|-----------------||-----------|-----------|

|--3-3-r-x-x-5-5-3-5--|--3-3-3-3-5------||-----------|------3-5--|

|---------------------|------------5-3--||--3-3-2-2--|--0-0------|

\/

 

 

CODA Bridge

|-----------|--------------||-------------------|-------------------|

|-----------|--------------||-------------------|-------------------|

|----5---5--|-------3-2-3--||-------------------|--3-3-3-3----------|

|--3---2----|--0--0--------||--0-0-0-0-2-2-2-2--|----------5-5-2-2--|

\__/

 

|-------------------|---------------|-------------------|

|-------------------|---------------|-------------------|

|----------------3--|--r---r--------|-------------------|

|--0-0-0-0-2-2-2----|----5---5-3-2--|--0-0-0-0-2-2-2-2--|

 

 

|-------------------|-------------------|-----------------||

|-------------------|-------------------|--------0-0---0--||

|--3-3-3-3-0-0------|-------------------|--3-3-3-----3----||

|--------------3-2--|--0-0-0-0-2-2-2-2--|-----------------||

 

 

Chorus

||--------------------|-------------------||-----------------------|

||*--5-5--------------|------------------*||-----------------------|

||*----------5-5---5--|--3-3--3-5-5-3-5--*||--7-7-r-x-x-5-5-r-x-x--|

||-------3-5-----5----|------5------------||-----------------------|

 

 

|---------------------|-----------------------|-------------------|

|---------------------|-----------------------|-------------------|

|--3-3-r-x-x-5-5-3-5--|--7-7-r-x-x-5-5-r-x-x--|--3-3-3-3-5-3------|

|---------------------|-----------------------|--------------5-3--|

 

 

Outro

||-----------------------|--------------------------||-------------------

||*----------------------|-------------------------*||*------------------

||*----------------------|------------3-3-3-3-3----*||*------5-------5---

||--3-3-3-3-3-2-2-2-2-2--|--0-0-0-0-0------------5--||---3-3---3-2-2---2-

 

 

|--------------------------||-----|

|-------------------------*||-----|

|-----------3-3-3-3-3-----*||-----|

|-0-0-0-0-0-----------5----||--3--|

 

 

 

Return to my to my Matchbox Twenty bass tabs page

The Tablature is Copyright its respective owners.

Sign Up For My Newsletter
Subscribe | Unsubscribe

Site Map | Disclaimer | Privacy Policy | Media Kit | Submissions/Corrections

Website © 2000-2014 mattsmusicpage.com. All rights reserved.

Legal & DMCA: Matt's Music Page has been providing lyrics and tabs in a legal way, paying royalties each year to a few organizations. Then, all lyrics and tabs were removed from the site. Now, there's a new owner to the site, which purchased it August 26, 2014, and he is in negotiation to obtain licensing from BMI at the moment. If you have a specific DMCA request -- please do not hesitate to contact me via the contact button on top. I will do my very best to keep this site fully legal.

Get our toolbar!