Your One-Stop Source For
Music Lyrics
Bass and Guitar Tabs
and More...
>Music Lyrics Bass and Guitar Tabs

 

The Tabs Are Below

Learn To Read Tab
Chords Handbook
Corrections & Additions
Get Official Tab
Matchbox 20 tabs @ 911Tabs

Matchbox Twenty – Disease

Tabbed by: sinniecoyote

 

 

Intro/Verse 1

G|-------------------------------------------------------------------------------------------|

D|--------------------------------------------6-4---4----------------------------------------|

A|------------2---4-4--2-4-4-2-6-6-4-2-6----------6---6-----------------------4-2-4----------|

E|-2-4-4--2-4---4-------------------------2-4-----------4-2-4-2-4----4-2-4-------------4-2-4-|

Rest for a while until “but I am stronger than you know...”

 

G|----------------------------------------|

D|----------------------------------------|

A|-----44444444444444464--------6-6666666-|

E|-11\-------------------4444444----------|

 

Pre-chorus 1

G|------------------------------------------------|

D|------------------------------------------------|

A|----------------------22444444-46-------7-66-66-|

E|-000000002222222244244--------4--0000000--------|

 

Chorus 1

G|------------------------------------------------|

D|------------------------------11---1------6-4---|

A|------------2---4-4--2-4-4-2-4--4-2-----------6-|

E|-2-4-4--2-4---4-----------------------2-4-------|

The ‘11’ is not on the 11th fret but it played fast on the 1st fret twice, and there is some notes that play on that way too, so just listen for it.

 

G|---------------------------------------------------------------|

D|-----------------------------------------------66-4---4--------|

A|--------------2---4-4-2---2---4-6-6-4---6-----------6---6------|

E|-4-2-4-4--2-4---4-------4---4---------6----2-4------------7-4--|

 

Verse 2

G|--------------------------------------------------------------------------------------|

D|--------------------------------------------------------------------------------------|

A|------------6--666666------------6-666666-4-2-4--4-4-4-4444464--------------6-6666666-|

E|-4-2-4--4-4-----------4-2-4--4-4-------------------------------2-4-2-4--4-4-----------|

 

Pre-chorus 2

G|------------------------------------------------|

D|------------------------------------------------|

A|----------------------22444444-46-------7-66-66-|

E|-000000002222222244244--------4--0000000--------|

 

Chorus 2

G|-------------------------------------------------|

D|------------------------------11---1-------6-4---|

A|------------2---4-4--2-4-4-2-4--4-2--4---------6-|

E|-2-4-4--2-4---4------------------------2-4-------|

 

G|-------------------------------------------------------------|

D|-------------------------------------------------------------|

A|--------------2---4-4-2---2---4-6-6-4---6--6/11-11-9----9----|

E|-4-2-4-4--2-4---4-------4---4---------6--------------11---11-|

 

G|-----------------------------------------------------------|

D|-----------------------------------------6-6-4---4---------|

A|------------2---4-4-2---4--4-6-6-4---6--6------6---6-------|

E|-2-4-4--2-4---4-------4------------6-----------------2-4-4-|

 

G|------------------------------|

D|------------------------------|

A|-----2---4-4----2-4-2-6666666-|

E|-2-4---4------4---------------|

 

Bridge

G|---------------------------------------------------------------|

D|-------------4-------------------------------------------------|

A|--444-4424444-42--------------2-444-4424444-444767676767676742-|

E|-4---4----------2444424-444244-4---4-------4-------------------|

 

Chorus 3/Outro

G|-------------------------------------------------|

D|------------------------------11---1-------6-4---|

A|------------2---4-4--2-4-4-2-4--4-2--4---------6-|

E|-2-4-4--2-4---4------------------------2-4-------|

 

 

 

G|-------------------------------------------------------------|

D|-------------------------------------------------------------|

A|--------------2---4-4-2---2---4-6-6-4---6--6/11-11-9----9----|

E|-4-2-4-4--2-4---4-------4---4---------6--------------11---11-|

 

G|----------------------------------------------------|

D|-----------------------------------------664--------|

A|------------2---4-4---44---66-4---6---------6-4-6-4-|

E|-2-4-4--2-4---4------4----6-----6---6-2-4-----------|

 

G|---------------------------------------------------------------------------------------|

D|---------------------------------------------------------------------------------------|

A|------------2---4-4-2---44-4-2-6-6-6-----------46666---------46666/13\1111111111111111-|

E|-2-4-4--2-4---4-------4--------------2-3-444446-----623444446--------------------------|

 

G|-----------------------------------------|

D|-----------------------------------------|

A|-966666--------45666666-2-2/4-------11\--|

E|-------65444444----------------4---------|

 

That’s it! Enjoy it, it’s a great bassline!

 

 

Return to my to my Matchbox Twenty bass tabs page

The Tablature is Copyright its respective owners.

Sign Up For My Newsletter
Subscribe | Unsubscribe

Site Map | Disclaimer | Privacy Policy | Media Kit | Submissions/Corrections

Website © 2000-2014 mattsmusicpage.com. All rights reserved.

Legal & DMCA: Matt's Music Page has been providing lyrics and tabs in a legal way, paying royalties each year to a few organizations. Then, all lyrics and tabs were removed from the site. Now, there's a new owner to the site, which purchased it August 26, 2014, and he is in negotiation to obtain licensing from BMI at the moment. If you have a specific DMCA request -- please do not hesitate to contact me via the contact button on top. I will do my very best to keep this site fully legal.

Get our toolbar!

 

❤Wedgwood Crystal Jasperware Charles Dickens Paperweight Cameo Drum 1/7500❤
$29.9
❤Wedgwood Crystal Jasperware Charles Dickens Paperweight Cameo Drum 1/7500❤ picture


WDW Mickey's Trade Parade Marching Donald Drums Animal Kingdom SO LE Disney Pin
$19.99
 WDW Mickey's Trade Parade Marching Donald Drums Animal Kingdom SO LE Disney Pin picture


Estate Souvenir from the Bahamas: Drum on Stick Noise Maker Dolphin Design LOOK
$1.79
Estate  Souvenir from the Bahamas: Drum on Stick Noise Maker Dolphin Design LOOK picture


MOLNIJA DRUM ON MARBLE RARE VINTAGE CLOCK RUSSIAN USSR NO RESERVE
$49.9
MOLNIJA DRUM ON MARBLE RARE VINTAGE CLOCK RUSSIAN USSR NO RESERVE picture


MID CENTURY MODERN ATOMIC FIBERGLASS DRUM SHADE WITH SMALL GOLD FLECKS
$59.99
MID CENTURY MODERN ATOMIC FIBERGLASS DRUM SHADE WITH SMALL GOLD FLECKS picture