Your One-Stop Source For
Music Lyrics
Bass and Guitar Tabs
and More...
Music Lyrics Bass and Guitar Tabs

 

The Tabs Are Below

Learn To Read Tab
Chords Handbook
Corrections & Additions
Get Official Tab
Matchbox 20 tabs @ 911Tabs

Song: Could I Be You

Artist: Matchbox 20

Album: More Than You Think You Are

Tuning: standard (E-A-D-G)

Tabber: Bear_[PV] (fuzzisslimshady@hotmail.com)

 

Verse

 

G--------------------------------------

D--------------------------------------

A--3-/-7-\-0-0-0-0-0-0-0-0---0---------

E--------------------------------3-----

 

Verse Part 2

 

G--------------------------------------

D--------------------------------------

A-----------3-3-3-3-3-2-3-5-5-5-5-3----

E-1-1-1-1-1----------------------------

 

Chorus

 

G--------------------------------------------------

D--------------------------------------------------

A--8-8-8-8-10-10-10-10-12-12-12-12-12-10-8-8-10-\-3

E--------------------------------------------------

 

Middle Bit

 

G--------------------------------------

D--------------------------------------

A-8-8-8-8-8 / 13-13-13-13-15-15--------

E--------------------------------------

 

Twiddly Bit After (Just wont come out...)

 

G-----------------------------

D-----------------------------

A---------8-10-8----8---------

E--8-8-10--------10-----------

 

After Twiddly Bit

 

G-----------------------------------------------------

D-----------------------------------------------------

A--8-8-8-8-8-8-8-8-10-10-10-10-10-10-12-12-12-12-12-10

E-----------------------------------------------------

 

G-----------------------------------------------------

D-----------------------------------------------------

A--8-8-8-8-8-8-8-8-10-10-10-\-0-0-0-0-----------------

E--------------------------------------3 1-1-1-1-1-3-3

 

Outro

 

G--------------------------------------------------

D--------------------------------------------------

A--3-3-3-3-3-3-6-6-6-6-6-8-8-8-8-8-3-3-3-3-3-------

E--------------------------------------------------

 

 

Return to my to my Matchbox Twenty bass tabs page

The Tablature is Copyright its respective owners.

Sign Up For My Newsletter
Subscribe | Unsubscribe

Site Map | Disclaimer | Privacy Policy | Media Kit | Submissions/Corrections

Website © 2000-2014 mattsmusicpage.com. All rights reserved.

Legal & DMCA: Matt's Music Page has been providing lyrics and tabs in a legal way, paying royalties each year to a few organizations. Then, all lyrics and tabs were removed from the site. Now, there's a new owner to the site, which purchased it August 26, 2014, and he is in negotiation to obtain licensing from BMI at the moment. If you have a specific DMCA request -- please do not hesitate to contact me via the contact button on top. I will do my very best to keep this site fully legal.

Get our toolbar!

 

® Elvis Presley Figure with Bars & Vinyl Record Stage
$23.99
® Elvis Presley Figure with Bars & Vinyl Record Stage picture


THE LONGINES SYMPHONETTE "SENTIMENTAL JOURNEY" VINTAGE VINYL ALBUM RECORD BOWL
$19.99
 THE LONGINES SYMPHONETTE


African Ghana Medley Vinyl Phono Record Beads (8mm) Ghana
$15.0
African Ghana Medley Vinyl Phono Record Beads (8mm)  Ghana picture


African Yellow Vinyl Phono Record Beads (6mm) Ghana
$12.0
African Yellow Vinyl Phono Record Beads (6mm)  Ghana picture


African Vintage Vinyl Phono Record Beads (7mm - Set of 4) Ghana
$69.0
African Vintage Vinyl Phono Record Beads (7mm - Set of 4)  Ghana picture