Your One-Stop Source For
Music Lyrics
Bass and Guitar Tabs
and More...
Music Lyrics Bass and Guitar Tabs

 

The Tabs Are Below

Learn To Read Tab
Chords Handbook
Corrections & Additions
Get Official Tab
Matchbox 20 tabs @ 911Tabs

Matchbox 20

Argue

By: Joe <TELEROCK@aol.com>

 

 

figure 1 (2x)

---------------------------------------------------------||

---------------------------------------------------------||

-------7--------------------------5---------------------||

----------7---------5-----------------5-----------------||

---5---------5---------5------3-----------3------5-----||

-----------------3---------3------------------3------3--||

 

 

figure 2 (2x)

-------------------------------------------------------------3--2--0--2--2--2--2--2--2--||

-------------------------------------------------------------3--3--0--3--3--3--3--3--3--||

--------------7--7--7--7----------------5--5--5--5------------2-----2--2--2--2--2--2--||

-7--7--7--7--7--7--7--7--5--5--5--5--5--5--5--5---------------------------------------||

-5--5--5--5--5--5--5--5--3--3--3--3--3--3--3--3--5--5--------------------------------||

------------------------------------------------------3--3---------------------------------||

 

 

figure 3

-----------------------------------------------------||

----------5----------------------------------3---7--||

---7---------7------5------7--5------5----------7--||

-------7---------7------5--------5-------5------7--||

--------------------------------------------------5--||

-----------------------------------------------------||

 

figure 4 (4x)

-----------------------------||

---7--7---------5--5--------||

---7--7--5--5--5--5--5--5--||

---7--7--5--5--5--5--5--5--||

---5--5--5--5--3--3--5--5--||

----------3--3--------3--3--||

 

figure 5 (2x)

---------------------------------------------------------||

---------------------------------------------------------||

------7-----7-----7------7-----------------------5-----||

---------7-----7------7-------------5---------5-----5--||

---5-----------------------------5------5--3-----------||

-----------------------------3-------------------------||

 

figure 6 bridge

------------------------------------------------------------------------

-----5--5--7--5h7--------5--5--7----------------5--5--7--5h7--------

-----5--5--7-------7-----5--5--7-------5--------5--5--7-------7------

-----5--5--7----------5--5--5--7--5h7-----7----5--5--7----------5--

-----3--3--5-------------3--3--7-----------------3--3--7--------------

-------------------------------------------------------------------------

 

 

fig. 6 cont.

----------0--2---------------------------------------------------

-------3--------3-----5--5--7--5h7-------5--5--7--------------

----2--------------0--5--5--7-------7-----5--5--7-------5-----

-0--------------------5--5--7----------5--5--5--7--5h7-----7--

----------------------3--3--5--------------3--3--7--------------

-----------------------------------------------------------------

 

 

fig. 6 cont.

---------------------------------0-----------||

--5--5--7--5h7--------------3-----3-------||

--5--5--7-------7--------2-----------2-----||

--5--5--7----------5--0-----------------0--||

--3--3--7-----------------------------------||

---------------------------------------------||

 

 

then back to figure 3, then 4, then 1

 

 

 

Return to my to my Matchbox Twenty tabs page

The Tablature is Copyright its respective owners.

Sign Up For My Newsletter
Subscribe | Unsubscribe

Site Map | Disclaimer | Privacy Policy | Media Kit | Submissions/Corrections

Website © 2000-2014 mattsmusicpage.com. All rights reserved.

Legal & DMCA: Matt's Music Page has been providing lyrics and tabs in a legal way, paying royalties each year to a few organizations. Then, all lyrics and tabs were removed from the site. Now, there's a new owner to the site, which purchased it August 26, 2014, and he is in negotiation to obtain licensing from BMI at the moment. If you have a specific DMCA request -- please do not hesitate to contact me via the contact button on top. I will do my very best to keep this site fully legal.

Get our toolbar!

 

Hard Rock Pin Las Vegas 4th of july red white and blue guitar
$5.0
Hard Rock Pin Las Vegas 4th of july red white and blue guitar picture


Hard Rock Pin Hollywood Fl Bell Girl with dice luggage and guitar
$5.0
Hard Rock Pin Hollywood Fl Bell Girl with dice luggage and guitar picture


Hard Rock Pin Las Vegas King of Clubs Guitar rare only 3 lines of info on back
$5.0
Hard Rock Pin Las Vegas King of Clubs Guitar rare only 3 lines of info on back picture


Hard Rock Pin Edmonton guitar pin
$5.0
Hard Rock Pin Edmonton guitar pin picture


Lladro Guitar Boy #4614 - Beautiful Piece of Lladro
$109.0
Lladro Guitar Boy #4614 - Beautiful Piece of Lladro picture