Your One-Stop Source For
Music Lyrics
Bass and Guitar Tabs
and More...
Music Lyrics Bass and Guitar Tabs

 

The Tabs Are Below

Learn To Read Tab
Chords Handbook
Corrections & Additions
Get Official Tab
Maroon 5 tabs @ 911Tabs

Sunday Morning - Maroon 5

-------------------------------------------------------------------------------

Tabbed by: Blueyedbrownie

Email: blueyedbrownie@hotmail.com

 

This is probably my favorite song by Maroon 5. It's so much fun to play on the piano,

so I decided to transcribe it to guitar. It sounds great, so learn it, play it, and

enjoy!

 

I've broken it down in 2 sections: the piano chords transcribed to guitar and the

electric guitar riffs.

 

Tuning: Standard

 

_______________

Piano

_______________

 

Chords:

Dm9 G13 Cmaj9 Dm7 G7 Cmaj7 G7#5 (Fill)

-12- -12- -10- ---- ---- ---- -11- -----

-10- -10- -8-- ---- ---- ---- -12- -8---

-10- -10- -9-- -10- -10- -9-- -10- --9--

-10- -9-- -9-- -10- -9-- -9-- ---- ---10

---- ---- ---- -x-- -10- -x-- ---- -----

---- ---- ---- -10- ---- -8-- ---- -----

 

Intro:

Dm9 G13 Cmaj9 (Fill) Dm7 G7 Cmaj7 (Fill)

 

Verse 1:

Dm9 G13 Cmaj9

Sunday morning, rain is falling,

Dm7 G7 Cmaj7

steal some covers, share some skin.

Dm9 G13 Cmaj9

Clouds are shrouding us in moments unforgettable,

Dm7 G7 Cmaj7

you twist to fit the mold that I am in.

Dm7 G13 Cmaj9

But things just get so crazy, living life gets hard to do,

Dm7 G7 Cmaj7

and I would gladly hit the road, get up and go if I knew,

Dm9 G13 Cmaj9

that someday it would lead me back to you,

Dm7 G7 Cmaj7

that someday it would lead me back to you.

 

Chorus:

Dm7 G7 Cmaj7

That may be all... I... need,

Dm7 G7 Cmaj7

In darkness she is all... I... see.

Dm7 G7 Cmaj7

Come and rest your bones... with... me.

Dm7

Driving slow on Sunday morning,

G7 Cmaj7

and I never want to leave.

 

Verse 2:

Dm9 G7#5 Cmaj7

Fingers trace your every outline, oh yeah, yeah,

Dm7 G7 Cmaj7

paint a picture with my hands.

Dm9 G13 Cmaj9

Back and forth, we sway like branches in a storm,

Dm7 G7 Cmaj7

change the weather, still together when it ends.

 

*Interlude*

 

Verse 3:

Dm9 G7#5 Cmaj7

But things just get so crazy, living life gets hard to do,

Dm7 G7 Cmaj7

Sunday morning, rain is falling, and I'm calling out to you.

Dm9 G13 Cmaj9

Singing someday it'll bring me back to you,

Dm7 G7 Cmaj7

find a way to bring myself back home to you.

 

Outro:

 

Repeat Dm7 G7 Cmaj7 as many times as you want.

 

 

_______

Guitar

_______

 

The verse guitar in this song pretty quiet so all you can hear are the high notes, and

it helps that it's accentuated by the wah effect.

 

The guitar starts at "Clouds are shrouding us..." and the riff starts at the same time

the Dm9 chord for the piano is played and it repeats until the chourus.

 

 

Play with slight distortion & wah effect

|-------------------------|-------------------------|

|-------------------------|-------------------------|

|---------5------------4--|---------4------------4--|

|-3-3-3-3---3--3-3-3-3---3|-2-2-2-2---2--2-2-2-2---2|

|-------------------------|-------------------------|

|-------------------------|-------------------------|

* * * * * * * * * * * * * * * * * * * *

PM PM PM PM

 

*Note-the notes played on the D string are palm-muted.

 

 

Chorus: Let chords ring out.

 

That may be all... I... need...

|---------------------------------------------------|

|---------------------------------------------------|

|-----------5------4----4---------------------------|

|-----------3------3----2---------------------------|

|-----------3------x----3---------------------------|

|------------------3--------------------------------|

 

In darkness, she is all... I... see...

|----0----------------------------------------------|

|----0----------------------------------------------|

|----4--------------5------4----4-------------------|

|----2--------------3------3----2-------------------|

|----3--------------3------x----3-------------------|

|--------------------------3------------------------|

 

Come and rest your bones... with... me...

|----0-----------------------------------------------|

|----0-----------------------------------------------|

|----4-------------5--------4-------4----------------|

|----2-------------3--------3-------2----------------|

|----3-------------3--------x-------3----------------|

|---------------------------3------------------------|

 

Driving slow on Sunday morning, and I never want to leave.

|--------------------------------------------------------|

|--------------------------------------------------------|

|----------------------5-------------4----------4--------|

|----------------------3-------------3----------2--------|

|----------------------3-------------x----------3--------|

|------------------------------------3-------------------|

 

Verse 2: Just play the above riff for every line in the song.

 

Chorus

 

Interlude: I've broken it up in sections so it's easier.

 

|----------------|--------------------|---------------|

|----------------|--------------------|---------------|

|----------------|--------------------|---------------|

|-----1-2--------|--------------------|---------------|

|-3---------2-1-0|-2-3----2-3----2-3--|------------3--|

|----------------|-----3------2------1|-1-3--x-3-5---5|

Whoa...yeah!

|----------------|--------------------|----------|-----------|

|----------------|--------------------|----------|-----------|

|----------------|--------------------|----------|-----------|

|-----1-2--------|--------------------|----------|-----------|

|-3---------2-1-0|-2-3----2-3----2-3--|---------3|--4----5---|

|----------------|-----3------2------1|--3--5----|-----------|

 

Verse 2: Just play the above riff for every line in the song.

 

Chorus/Outro: Play as many times as you like.

 

Yeah, that's it! I hope you guys enjoy Maroon 5 just as much as I do!

Like I said: learn it, play it, and enjoy!

 

P.S. In my opinion, it sounds great acoustically! So try that out if you get a chance!

 

Return to my Maroon 5 tabs page

The Tablature is Copyright its respective owners.

Sign Up For My Newsletter
Subscribe | Unsubscribe

Site Map | Disclaimer | Privacy Policy | Media Kit | Submissions/Corrections

Website © 2000-2014 mattsmusicpage.com. All rights reserved.

Legal & DMCA: Matt's Music Page has been providing lyrics and tabs in a legal way, paying royalties each year to a few organizations. Then, all lyrics and tabs were removed from the site. Now, there's a new owner to the site, which purchased it August 26, 2014, and he is in negotiation to obtain licensing from BMI at the moment. If you have a specific DMCA request -- please do not hesitate to contact me via the contact button on top. I will do my very best to keep this site fully legal.

Get our toolbar!