Your One-Stop Source For
Music Lyrics
Bass and Guitar Tabs
and More...
Music Lyrics Bass and Guitar Tabs

 

The Tabs Are Below

Learn To Read Tab
Chords Handbook
Corrections & Additions
Get Official Tab
Maroon 5 tabs @ 911Tabs

Band: Maroon 5

Song: simple kind of lovely

 

X CELLENT! HAPPY JAZZY SONG!!! maroon5 rules

 

opening chords (played under intro guitar solo)

 

8x 8x 1X (2nd time through)

 

e|--14------14------15-------------------------------------------------|

B|--14------13------13-------------------------------------------------|

G|--14------14------14-------------------------------------------------|

D|---------------------------------------------------------------------|

A|---------------------------------------------------------------------|

E|---------------------------------------------------------------------|

 

SOLO PLAYED OVER CHORDS 0:12

e|---------------------------------------------------------------------|

B|---------------------------------------------------------------------|

G|---------------------------------------------------------------------|

D|---------------2--4---4-sl-7--4------------4--7--7-sl-10--9--7-sl-4--|

A|--0-----2-h-4--------------------7--2-3--7---------------------------|

E|---------------------------------------------------------------------|

 

verse chords (:24) be creative with rhythm & listen to cd

 

On cd he hits top stings of chord then waits a measure to hit bottom strings

A few times in succession. Then one E at end and a fill

 

 

A E Fill (right after E)

e|--5-----------------------0-------0------------------------------------|

B|--5-----------------------0-------0------------------------------------|

G|--6-----------------------1----------------4V--------------------------|

D|--7-----------------------2----------4-h-7----7------------------------|

A|--7-----------------------2--------------------------------------------|

D|--5-----------------------0--------------------------------------------|

 

 

Chorus : (0:43)

 

Where do I aim when i shoot the breeze?

F# D A

 

How do I calm myslef at times like these

E C# D

 

I need a simple kind of lovely and the thought is just a novelty

D (on thought slide from D to A)

:56

 

 

 

After Chorus Little Solo (same as intro except for the ending)

 

play 3 times 3rd time do the slide down at end

e|---------------------------------------------------------------------|

B|---------------------------------------------------------------------|

G|-----------------7-p-6-----------------------------------------------|

D|---------------2--------7-sl-2--(then dampen here)-------------------|

A|--0-----2-h-4--------------------------------------------------------|

e|---------------------------------------------------------------------|

 

over starting chords (play each 8 times) 2 times through

e|--14------14---------------------------------------------------------|

B|--14------13---------------------------------------------------------|

G|--14------14---------------------------------------------------------|

D|---------------------------------------------------------------------|

A|---------------------------------------------------------------------|

E|---------------------------------------------------------------------|

 

2nd VERSE same as before

 

2nd Chorus same as before

 

 

bridge solo (over intro chords) with light grit distortion type

e|---------------------------------------------------------------------|

B|---------------------------------------------------------------------|

G|---------------------------------------------------------------------|

D|---------------2--4---4-sl-7--4------------4--7--7-sl-10--VVVVVV~~~--|

A|--0-----2-h-4--------------------7--2-3--7---------------------------|

E|---------------------------------------------------------------------|

 

|- 2 times--|

e|--7--------7---------------------------------------------------------|

B|--10-b-12--10v-------------------------------------------------------|

G|---------------------------------------------------------------------|

D|----------------------------------1--2-sl-4--7v----------------------|

A|-------------------0--2-sl-4--7--------------------------------------|

E|---------------------------------------------------------------------|

 

Then Back to chorus same as b 4 at 2:16

 

then at the word "OKAY" at 2:31 play these chords once (4 times each)

 

e|--14------14---------------------------------------------------------|

B|--14------13---------------------------------------------------------|

G|--14------14---------------------------------------------------------|

D|---------------------------------------------------------------------|

A|---------------------------------------------------------------------|

E|---------------------------------------------------------------------|

 

D E

Then theres a pause and he says A simple kind of Lovely and the Memories will be okay

 

Then Outro at 2:42

improvising done at end

e|------------------------------------------------14-17-14-------------|

B|------------------------------------------------15-15-14-------------|

G|-----------------7-p-6------or 7-6---6-----and--14-14-14-------------|

D|---------------2-------------------7---------------------------------|

A|--0-----2-h-4--------------------------------------------------------|

e|---------------------------------------------------------------------|

 

YAY IM DONE HOPE YOU CAN MAKE SENSE OF THIS TAB

 

PEACE, JAKE PRAHAR

 

 

Return to my Maroon 5 tabs page

The Tablature is Copyright its respective owners.

Sign Up For My Newsletter
Subscribe | Unsubscribe

Site Map | Disclaimer | Privacy Policy | Media Kit | Submissions/Corrections

Website © 2000-2014 mattsmusicpage.com. All rights reserved.

Legal & DMCA: Matt's Music Page has been providing lyrics and tabs in a legal way, paying royalties each year to a few organizations. Then, all lyrics and tabs were removed from the site. Now, there's a new owner to the site, which purchased it August 26, 2014, and he is in negotiation to obtain licensing from BMI at the moment. If you have a specific DMCA request -- please do not hesitate to contact me via the contact button on top. I will do my very best to keep this site fully legal.

Get our toolbar!

 

1939 LYRIC THEATRE New York PHOTO
$5.83
1939 LYRIC THEATRE New York PHOTO picture


Star Spangled Banner or Marines Hymn lyrics signed by WWII Charles W. Lindberg
$10.0
Star Spangled Banner or Marines Hymn lyrics signed by WWII Charles W. Lindberg picture


OLD LARGE HISTORIC PHOTO OF THE LYRIC THEATRE, SYDNEY c1930s, WAR BONDS BOOTH
$7.42
OLD LARGE HISTORIC PHOTO OF THE LYRIC THEATRE, SYDNEY c1930s, WAR BONDS BOOTH picture


SONG OF REVOLUTION CARD SET WITH 13 MOST FAVORED COMMUNIST SONGS LYRICS + NOTES
$24.99
SONG OF REVOLUTION CARD SET WITH 13 MOST FAVORED COMMUNIST SONGS LYRICS + NOTES picture


OLD LARGE HISTORIC PHOTO OF THE LYRIC THEATRE, SYDNEY c1930s, WAR LOANS BOOTH
$7.42
OLD LARGE HISTORIC PHOTO OF THE LYRIC THEATRE, SYDNEY c1930s, WAR LOANS BOOTH picture