Your One-Stop Source For
Music Lyrics
Bass and Guitar Tabs
and More...
Music Lyrics Bass and Guitar Tabs

 

The Tabs Are Below

Learn To Read Tab
Chords Handbook
Corrections & Additions
Get Official Tab
Marcy Playground tabs @ 911Tabs

SEX AND CANDY

by Marcy Playground

tabbed by ikswejahan@aol.com

Standard Tuning

 

RIFF 1 - 3 TIMES

|------------------------|---------------------------|

|------------------------|---------------------------|

|------------------------|---------------------------|

|----- 9---9-9-9-9--9-9--|--5-5-5-5-4-4-4-4----------|

|------9---9-9-9-9--9-9--|--5-5-5-5-4-4-4-4----------|

|--7---7---7-7-7-7--7-7--|--3-3-3-3-2-2-2-2----------|

 

RIFF 1a - ONCE

|------------------------|---------------------------------|

|------------------------|---------------------------------|

|------------------------|---------------------------------|

|----- 9---9-9-9-9--9-9--|--5-5-5-5-4-4-4-4-4-4-4-4--------|

|------9---9-9-9-9--9-9--|--5-5-5-5-4-4-4-4-4-4-4-4--------|

|--7---7---7-7-7-7--7-7--|--3-3-3-3-2-2-2-2-2-2-2-2--------|

 

CHORUS

|--------------------------------------|

|--------------------------------------|

|--------------------------------------|

|--7h9p7----------9--9-5-5-5-5-7--7-7--|

|--------9-7h9----9--9-5-5-5-5-7--7-7--|

|--------------7--7--7-3-3-3-3-5--5-5--|

 

CHORUS (continued)

|--------------------------------------|

|--------------------------------------|

|--------------------------------------|

|--7h9p7----------9--9-5-5-5-5-7--7-7--|

|--------9-7h9----9--9-5-5-5-5-7--7-7--|

|--------------7--7--7-3-3-3-3-5--5-5--|

 

CHORUS (continued again)

|------------------------------------------------|

|------------------------------------------------|

|------------------------------------------------|

|--7h9p7----------9--9-5-5-5-5-7--7-7-7-7-7-7-7--|

|--------9-7h9----9--9-5-5-5-5-7--7-7-7-7-7-7-7--|

|--------------7--7--7-3-3-3-3-5--5-5-5-5-5-5-5--|

 

RIFF 2 - 2 TIMES

|-------------------------------|

|-------------------------------|

|--7--7-7-----------------------|

|--7--7-7--7-7-7--9-9-9--5-5-5--|

|--5--5-5--7-7-7--9-9-9--5-5-5--|

|----------5-5-5--7-7-7--3-3-3--|

 

RIFF 2a - 2 TIMES

|-------------------|

|-------------------|

|-------------------|

|--4-4-4-4-4-4-4-4--|

|--4-4-4-4-4-4-4-4--|

|--2-2-2-2-2-2-2-2--|

 

RIFF 1 (3 times)

 

RIFF 1a (1 time)

 

CHORUS

 

RIFF 2 (3 times)

 

RIFF 2a (1 time)

 

CHORUS

 

RIFF 2 (3 times)

 

END WITH: D5

 

There it is. I did it a little differently than the usual stuff

but I think you get the point. Send me any requests.

Plus, let me know if you wanna sign up for my tab mailing list.

 

 

Return to my to my Marcy Playground tabs page

The Tablature is Copyright its respective owners.

Sign Up For My Newsletter
Subscribe | Unsubscribe

Site Map | Disclaimer | Privacy Policy | Media Kit | Submissions/Corrections

Website © 2000-2014 mattsmusicpage.com. All rights reserved.

Legal & DMCA: Matt's Music Page has been providing lyrics and tabs in a legal way, paying royalties each year to a few organizations. Then, all lyrics and tabs were removed from the site. Now, there's a new owner to the site, which purchased it August 26, 2014, and he is in negotiation to obtain licensing from BMI at the moment. If you have a specific DMCA request -- please do not hesitate to contact me via the contact button on top. I will do my very best to keep this site fully legal.

Get our toolbar!