Your One-Stop Source For
Music Lyrics
Bass and Guitar Tabs
and More...
Music Lyrics Bass and Guitar Tabs

 

The Tabs Are Below

Learn To Read Tab
Chords Handbook
Corrections & Additions
Get Official Tab
Marcy Playground tabs @ 911Tabs

Marcy Playground - All The Lights Went Out

Submitted By: Jazz

EMail: joeyjojo@junior.shabadoo

 

 

Intro/Verse

E|----------------------------------------------------------------

B|----------------------------------------------------------------

G|----------------------------------------------------------------

D|---6---6---6---7---7---7---7---7---4---4---4---6---6---6---6---6

A|----------------------------------------------------------------

E|-0---0---0---0---0---0---0---0---0---0---0---0---0---0---0---0--

She came in from stormy weather

And asked her friend to be there with her

When she slid...

 

E|----------------------------------------------------------------

B|----------------------------------------------------------------

G|----------------------------------------------------------------

D|---2---2---2---2---2---2---2---2--------------------------------

A|-4---4---4---4---4---4---4---4----------------------------------

E|----------------------------------------------------------------

...down Cupid's

 

E|----------------------------------------------------------------

B|----------------------------------------------------------------

G|---2---2---2---2---2---2---2---2--------------------------------

D|-0---0---0---0---0---0---0---0----------------------------------

A|----------------------------------------------------------------

E|----------------------------------------------------------------

bow

 

E|----------------------------------------------------------------

B|----------------------------------------------------------------

G|----------------------------------------------------------------

D|---2---2---2---2---2---2---2---2--------------------------------

A|----------------------------------------------------------------

E|-0---0---0---0---0---0---0---0----------------------------------

Oh lookin'

 

E|----------------------------------------------------------------

B|----------------------------------------------------------------

G|----------------------------------------------------------------

D|---6---6---6---7---7---7---7---7---4---4---4---6---6---6---6---6

A|----------------------------------------------------------------

E|-0---0---0---0---0---0---0---0---0---0---0---0---0---0---0---0--

fine that day

 

(Repeat pattern for verses)

 

I had a dream that we were lovers

I had a joke and she would smile when I'd say

We could blow

Blow a fuse in heaven

 

 

Prechorus (with distortion, let ring)

E5

E|----------------------------------------------------------------

B|----------------------------------------------------------------

G|----------------------------------------------------------------

D|--2-----2-----2-----2---------------2---------------------------

A|--2-----2-----2-----2---------------2---------------------------

E|--0-----0-----0-----0---------------0---------------------------

Yeah, yeah, yeah, yeah.......Well today...All the lights went

 

A5

E|----------------------------------------------------------------

B|----------------------------------------------------------------

G|----------------------------------------------------------------

D|--7--7--7777---------b7r6b7r6-b7r6------------------------------

A|--7--7--7777----------------------------------------------------

E|--5--5--5555----------------------------------------------------

...out in...heaven

 

E|----------------------------------------------------------------

B|----------------------------------------------------------------

G|----------------------------------------------------------------

D|-----6---7p6---6---7\-------------------------------------------

A|-----7---7---7---7-6\-------------------------------------------

E|-0-7---0---------0----------------------------------------------

Yeah today

All the lights went...

 

A5

E|----------------------------------------------------------------

B|----------------------------------------------------------------

G|----------------------------------------------------------------

D|--7--7--7777---------b7r6b7r6-b7r6------------------------------

A|--7--7--7777----------------------------------------------------

E|--5--5--5555----------------------------------------------------

...out in...heaven

 

E|----------------------------------------------------------------

B|----------------------------------------------------------------

G|----------------------------------------------------------------

D|-----6---7p6---6---7\-------------------------------------------

A|-----7---7---7---7-6\-------------------------------------------

E|-0-7---0---------0----------------------------------------------

 

(2X)

E|----------------------------------------------------------------

B|----------------------------------------------------------------

G|----------------------------------------------------------------

D|---6---6---6---7---7---7---7---7---4---4---4---6---6---6---6---6

A|----------------------------------------------------------------

E|-0---0---0---0---0---0---0---0---0---0---0---0---0---0---0---0--

 

And I...

 

E|----------------------------------------------------------------

B|----------------------------------------------------------------

G|----------------------------------------------------------------

D|---2---2---2---2---2---2---2---2--------------------------------

A|-4---4---4---4---4---4---4---4----------------------------------

E|----------------------------------------------------------------

knew that she was...

 

E|----------------------------------------------------------------

B|----------------------------------------------------------------

G|---2---2---2---2---2---2---2---2--------------------------------

D|-0---0---0---0---0---0---0---0----------------------------------

A|----------------------------------------------------------------

E|----------------------------------------------------------------

all ...All

 

E|----------------------------------------------------------------

B|----------------------------------------------------------------

G|----------------------------------------------------------------

D|---2---2---2---2---2---2---2---2--------------------------------

A|----------------------------------------------------------------

E|-0---0---0---0---0---0---0---0----------------------------------

that I needed

 

E5

E|----------------------------------------------------------------

B|----------------------------------------------------------------

G|----------------------------------------------------------------

D|--2-----2-----2-----2----------------2--------------------------

A|--2-----2-----2-----2----------------2--------------------------

E|--0-----0-----0-----0----------------0--------------------------

Yeah, yeah, yeah, yeah.......Cause today...All the lights went

 

 

 

A5

E|----------------------------------------------------------------

B|----------------------------------------------------------------

G|----------------------------------------------------------------

D|--7--7--7777---------b7r6b7r6-b7r6------------------------------

A|--7--7--7777----------------------------------------------------

E|--5--5--5555----------------------------------------------------

...out in...heaven

 

E|----------------------------------------------------------------

B|----------------------------------------------------------------

G|----------------------------------------------------------------

D|-----6---7p6---6---7\-------------------------------------------

A|-----7---7---7---7-6\-------------------------------------------

E|-0-7---0---------0----------------------------------------------

Yeah today

All the lights went...

 

A5

E|----------------------------------------------------------------

B|----------------------------------------------------------------

G|----------------------------------------------------------------

D|--7--7--7777---------b7r6b7r6-b7r6------------------------------

A|--7--7--7777----------------------------------------------------

E|--5--5--5555----------------------------------------------------

...out in...heaven

 

Ring out

E|----------------------------------------------------------------

B|----------------------------------------------------------------

G|----------------------------------------------------------------

D|-----6---7p6---6---7\--2----------------------------------------

A|-----7---7---7---7-6\--2----------------------------------------

E|-0-7---0---------0-----0----------------------------------------

 

And I...

E|----------------------------------------------------------------

B|----------------------------------------------------------------

G|----------------------------------------------------------------

D|---2---2---2---2---2---2---2---2--------------------------------

A|-4---4---4---4---4---4---4---4----------------------------------

E|----------------------------------------------------------------

knew that we were

 

E|----------------------------------------------------------------

B|----------------------------------------------------------------

G|---2---2---2---2---2---2---2---2--------------------------------

D|-0---0---0---0---0---0---0---0----------------------------------

A|----------------------------------------------------------------

E|---------------------------------------------------------------

doomed Doomed

 

E|----------------------------------------------------------------

B|----------------------------------------------------------------

G|----------------------------------------------------------------

D|---2---2---2---2---2---2---2---2-----6--------------------------

A|----------------------------------------------------------------

E|-0---0---0---0---0---0---0---0-----0----------------------------

to love each other

 

Return to my to my Marcy Playground tabs page

The Tablature is Copyright its respective owners.

Sign Up For My Newsletter
Subscribe | Unsubscribe

Site Map | Disclaimer | Privacy Policy | Media Kit | Submissions/Corrections

Website © 2000-2014 mattsmusicpage.com. All rights reserved.

Legal & DMCA: Matt's Music Page has been providing lyrics and tabs in a legal way, paying royalties each year to a few organizations. Then, all lyrics and tabs were removed from the site. Now, there's a new owner to the site, which purchased it August 26, 2014, and he is in negotiation to obtain licensing from BMI at the moment. If you have a specific DMCA request -- please do not hesitate to contact me via the contact button on top. I will do my very best to keep this site fully legal.

Get our toolbar!