Your One-Stop Source For
Music Lyrics
Bass and Guitar Tabs
and More...
Music Lyrics Bass and Guitar Tabs

 

The Tabs Are Below

Learn To Read Tab
Chords Handbook
Corrections & Additions
Get Official Tab

MANDY MOORE 'YO YO'

*******************

 

From the album 'Mandy Moore'

Tabbed by Anthony R.G

Changes/Queries: anthony_russell@hotbox.ru

 

INTRO

-----

 

Here's the chords done on that bright acoustic, you figure the strumming:

 

1|-0----0----0----0----

2|-0----0----0----0----

3|-8----9----9----9----

4|-9----9----11---9----

5|---------------------

6|---------------------

 

Lead guitars do these bits:

 

1|-----0------------11-------------------0-------------------------------------------

2|-4/5---5-4------------12------------------7-------6---6--6/9--9--------------------

3|--------------------------11-------8/9------8--------------------------------------

4|--------------------------------------------------4---4--4/7--7--------------------

5|-----------------------------------------------------------------------------------

6|-----------------------------------------------------------------------------------

 

VERSE

-----

G#m

I keep hangin around, got some attachment to you

 

 

Way down is still where you get through

 

 

I've told myself it isn't right but it isn't wrong

 

 

PRE-CHORUS

----------

 

E B F# G#m E B F#

Oh, and it's not hard to figure out why I am never too far from the floor

 

E B F# G#m Asus2

You can only take me up and down, I've got to move forward so I've cut the cord

 

 

CHORUS

------

 

B E C#m

It's broken, I can't let that hope in

 

E B E C#m E

I know what you want, I'm not a Yo-Yo, I'm not a thing you let go

 

 

BRIDGE

------

 

G#m B

Didn't I adore you? Didn't I bend to keep you satisfied, didn't I?

 

G#m B

Didn't I assure you for every climb there is a downward slide, that I can't ride?

 

 

Return to my Mandy Moore tabs page

The Tablature is Copyright its respective owners.

Sign Up For My Newsletter
Subscribe | Unsubscribe

Site Map | Disclaimer | Privacy Policy | Media Kit | Submissions/Corrections

Website © 2000-2014 mattsmusicpage.com. All rights reserved.

Legal & DMCA: Matt's Music Page has been providing lyrics and tabs in a legal way, paying royalties each year to a few organizations. Then, all lyrics and tabs were removed from the site. Now, there's a new owner to the site, which purchased it August 26, 2014, and he is in negotiation to obtain licensing from BMI at the moment. If you have a specific DMCA request -- please do not hesitate to contact me via the contact button on top. I will do my very best to keep this site fully legal.

Get our toolbar!