Your One-Stop Source For
Music Lyrics
Bass and Guitar Tabs
and More...
>Music Lyrics Bass and Guitar Tabs

 

The Tabs Are Below

Learn To Read Tab
Chords Handbook
Corrections & Additions
Get Official Tab

MANDY MOORE 'YOU REMIND ME'

***************************

 

From the album 'Mandy Moore'

Tabbed by Anthony R.G

Changes/Queries: anthony_russell@hotbox.ru

 

INTRO

-----

 

E D A E (with sitar fill below)

 

1|----------------------------------------------------------------------------------

2|-----5-------5---5------5--------5------5-------5--------5------5---5--------------

3|---4---4------------------2--------2------2-------2--------4-----------------------

4|-2--------2---2---2--0-------0-----------------------2-------2---2---2------------

5|-------------------------------------0-------0------------------------------------

6|----------------------------------------------------------------------------------

 

**Sitar fill***

 

1|-12-10-----------------------------

2|------12-10-12-10-9---10p9---------

3|--------------------9------9----9--

4|-----------------------------12----

5|-----------------------------------

6|-----------------------------------

 

 

VERSE

-----

 

E D

When I first saw you I couldn't believe

 

A E

The way your smile took the breathe out of me

 

 

CHORUS

------

 

E D

You remind me of the love I knew

 

A E

Feels so real it must be deja vouz

 

 

BRIDGE

------

 

E D

I, I cannot figure it out

 

A E

I ain't got a clue

 

E D

I'm so confused about way I feel

 

A

'Cause I'm really feelin' you

 

 

Return to my Mandy Moore tabs page

The Tablature is Copyright its respective owners.

Sign Up For My Newsletter
Subscribe | Unsubscribe

Site Map | Disclaimer | Privacy Policy | Media Kit | Submissions/Corrections

Website © 2000-2014 mattsmusicpage.com. All rights reserved.

Legal & DMCA: Matt's Music Page has been providing lyrics and tabs in a legal way, paying royalties each year to a few organizations. Then, all lyrics and tabs were removed from the site. Now, there's a new owner to the site, which purchased it August 26, 2014, and he is in negotiation to obtain licensing from BMI at the moment. If you have a specific DMCA request -- please do not hesitate to contact me via the contact button on top. I will do my very best to keep this site fully legal.

Get our toolbar!

 

The Jolly Lumberjacks -Vinyl 45 Record- Terry's Polka / Randy's Waltz
$12.0
The Jolly Lumberjacks -Vinyl 45 Record- Terry's Polka / Randy's Waltz picture


Jimmy Dean -Vinyl 45 Record- Walk on Boy / P.T.109
$12.0
Jimmy Dean -Vinyl 45 Record- Walk on Boy / P.T.109 picture


The Carpenters - 45 Vinyl Record - Sing / Druscilla Penny
$12.0
The Carpenters - 45 Vinyl Record - Sing / Druscilla Penny picture


Roberta Flack- Vinyl 45 Record -When You Smile / Feel Like Makin' Love
$12.0
Roberta Flack- Vinyl 45 Record -When You Smile / Feel Like Makin' Love picture


Ed Ames - Vinyl 45 Record - My Cup Runneth Over / It Seems a Long Long Time
$12.0
Ed Ames - Vinyl 45 Record -  My Cup Runneth Over / It Seems a Long Long Time picture