Your One-Stop Source For
Music Lyrics
Bass and Guitar Tabs
and More...
Music Lyrics Bass and Guitar Tabs

 

The Tabs Are Below

Learn To Read Tab
Chords Handbook
Corrections & Additions
Get Official Tab

MANDY MOORE 'WHEN I TALK TO YOU'

********************************

 

From the album 'Mandy Moore'

Tabbed by Anthony R.G

Changes/Queries: anthony_russell@hotbox.ru

 

Updated below by limuel@onlineprogrammer.org

 

INTRO

-----

 

Asus2 E Dsus4 Asus2

 

1|-------------0-------------0--------------0-------------0--

2|-0----0----0----------0--0-----3----3---3---------0-----0--

3|-2----2-----------1---1--------2----2---2-----2---2---2----

4|-2----2-----------2---2--------0--------------2---2---2----

5|-0----------------2---2-----------------------0---0--------

6|------------------0----------------------------------------

 

 

VERSE

-----

 

Asus2 E

Remember me, feels like forever

 

Dsus4 Asus2

Since the date when we were friends

 

 

PRE-CHORUS

----------

 

F#m D

Where'd it go? Do you know?

 

Bm A E

Maybe it just doesn't matter

 

 

CHORUS

------

 

A F#m D

Cause when I try to talk to you

 

A F#m D

I feel like I'm not getting through to you

 

G D/F#

Where did we go wrong, it's hard to be strong

 

E D5 Asus2

When I talk, when I talk to you

 

BRIDGE

------

 

D5 Bm A E

When I talk to you I want you to know everything that I am

 

Bm A E D

I want to know what life would be without you

 

 

OUTRO

-----

 

D A F#m

When I talk to you

 

 

1|------0-------0--------

2|----3---3-------3------

3|-2--------2-------2--2-

4|-0----------------0----

5|-----------------------

6|-----------------------

 

 

______________________________________________________

 

***When I Talk To You updated (July 17th 2002)***

______________________________________________________

 

 

INTRO:

 

A E D A

 

|------0----0-------0----0-------0----0-------0----0-0-

|------2------------0---------3--3------------2----2---

|---2--2------------1---------2--2---------2--2--2-2---

|---2--2--2------2--2--2------0--0--0------2--2--2-2---

|----------------2-------------------------------------

|------------------------------------------------------

 

VERSE:

 

Remember me, feels like forever since the days

when we were friends

 

A E D A

 

|------0----0-------0----0-------0----0-------0----0-0-

|------2------------0---------3--3------------2----2---

|---2--2------------1---------2--2---------2--2--2-2---

|---2--2--2------2--2--2------0--0--0------2--2--2-2---

|----------------2-------------------------------------

|------------------------------------------------------

 

Don't understand all these changes I'm still the

same no need to pretend

 

A E D A

 

|------0----0-------0----0-------0----0-------0--0-----

|------2------------0---------3--3------------2--2-----

|---2--2------------1---------2--2---------2--2--2-----

|---2--2--2------2--2--2------0--0--0------2--2--2-----

|----------------2-------------------------------------

|------------------------------------------------------

 

PRE-CHORUS:

 

Where'd it go, Do you know

 

|------------------------------------------------------

|-----7--7-------7-------10--10-------10---------------

|-----6----6---6---6-----9------9---9----9-------------

|---4-4------4-------4-7-7--------7--------7-----------

|------------------------------------------------------

|------------------------------------------------------

 

Maybe it just doesn't matter

 

|----------------------------

|---------------------------- c(~,~)o

|---7-7---6-6---1--1-1------- ^

|---7-7---7-7---2--2-2-------

|---5-5---7-7---2--2-2-------

|---------5-5----------------

 

CHORUS:

 

Cause when I try to talk to you

I feel like I'm not getting through to you

 

|---0-0----0--0--0--0---0-0----0--0--0--0-----

|---2-2----2--3--3--3---2-2----2--3--3--3-----

|---2-2----2--2--2--2---2-2----2--2--2--2-----

|---2-2----2--0--0--0---2-2----2--0--0--0-----

|---0-0----0------------0-0----0--------------

|--------2-------------------2----------------

 

Where did we go wrong It's hard to be strong

when I talk, when I talk to you

 

|-------0--0------0--0-----0--0x------0------0----0---

|-----3-3--3----3-3--3-----0--0x----3-3------2--------

|-----2----2----2----2--1--1--1x----2-----2--2--------

|-----------------------2--2--2x--0-------2--2--2-----

|-----------------------2-----------------------------

|---3---------2---------------------------------------

 

 

VERSE II:

 

There were times in the beginning, When you were

there when I needed you most

 

A E D A

 

|------0-------0-0--0--0------0--0----0----0--0-------

|------2---------0--0--0------3--3---------2--2-------

|---2--2--2------1--1--1------2--2---------2--2--2----

|---2--2--2------2--2--2------0--0--0------2--2--2----

|---0-----0------2--2--2-------------------0--0--0----

|-----------------------------------------------------

 

We'd sit and talk about the future and laugh about

us getting old

 

A E D A

 

|------0----0----0--0--0------0--0----0----0--0--0----

|------2---------0--0--0------3--3---------2--2--2----

|---2--2---------1--1--1------2--2---------2--2--2----

|---2--2--2------2--2--2------0--0--0------2--2--2----

|---0------------2--2--2-------------------0--0--0----

|-----------------------------------------------------

 

PRE-CHORUS:

 

Do you know how it feels

 

|----------------------------------------------------- < d'+'b > Radio

Shocker

|-----7--7-------7-------10--10-------10--------------

|-----6----6---6---6-----9------9---9----9------------

|---4-4------4-------4-7-7--------7--------7----------

|-----------------------------------------------------

|-----------------------------------------------------

 

I hope that you know that it matters

 

|----------------------------

|---------------------------- (()))

|---7-7---6-6---1--1-1------- d'+'b Pido Dido!!!!!

|---7-7---7-7---2--2-2------- \o/

|---5-5---7-7---2--2-2-------

|---------5-5----------------

 

CHORUS:

 

Cause when I try to talk to you

I feel like I'm not getting through to you

 

|---0-0----0--0--0--0---0-0----0--0--0--0-----

|---2-2----2--3--3--3---2-2----2--3--3--3-----

|---2-2----2--2--2--2---2-2----2--2--2--2-----

|---2-2----2--0--0--0---2-2----2--0--0--0-----

|---0-0----0------------0-0----0--------------

|--------2-------------------2----------------

 

Where did we go wrong It's hard to be strong

when I talk, when I talk to you

 

|-------0--0------0--0-----0--0x------0---------------

|-----3-3--3----3-3--3-----0--0x----3-3---------------

|-----2----2----2----2--1--1--1x----2-----------------

|-----------------------2--2--2x--0-------------------

|-----------------------2-----------------------------

|---3---------2---------------------------------------

 

BRIDGE:

 

I want you to know everything that I am

Don't want to know what life would be without you

 

Bm A E Bm A E D

 

|-----2-----0---0--0--0---|-----2-----0---0--0---

|-----3-----2---0--0--0---|-----3-----2---0--3---

|-----4-----2---1--1--1---|-----4-----2---1--2---

|-----4-----2---2--2--2---|-----4-----2---2--0---

|---2-----0-----2--2--2---|---2-----0-----2------

|-------------------------|----------------------

 

CHORUS:

 

Cause when I try to talk to you

I feel like I'm not getting through to you

 

|---0-0----0--0--0--0---0-0----0--0--0--0-----

|---2-2----2--3--3--3---2-2----2--3--3--3-----

|---2-2----2--2--2--2---2-2----2--2--2--2-----

|---2-2----2--0--0--0---2-2----2--0--0--0-----

|---0-0----0------------0-0----0--------------

|--------2-------------------2----------------

 

Where did we go wrong It's hard to be strong

when I talk, when I talk to you

 

|-------0--0------0--0-----0--0x------0-0------

|-----3-3--3----3-3--3-----0--0x----3-3-3------

|-----2----2----2----2--1--1--1x----2----------

|-----------------------2--2--2x--0------------

|-----------------------2----------------------

|---3---------2--------------------------------

 

When I talk to you 3x

 

|-----0----0----0-0-----0----0----0-0-----0----0----0-0-----

|-----2----2--3-3-3-----2----2--3-3-3-----2----2--3-3-3-----

|---2-2----2--2-2-2---2-2----2--2-2-2---2-2----2--2-2-2-----

|---2-2----2--0-0-0---2-2----2--0-0-0---2-2----2--0-0-0-----

|---0-----------------0-----------------0-------------------

|--------2-----------------2-----------------2--------------

 

then quickly pluck this

 

|---0-----0-----0-----------0-----0-----------0-----0-------

|-----3-----3-----3-----------3-----3-----------3-----3-----

|-------2-----2-----2---2-2-----2-----2---2-2-----2-----2---

|-------0-----0-----0-----0-----0-----0-----0-----0-----0---

|-----------------------------------------------------------

|-----------------------------------------------------------

 

repeat this till fade

 

|-------0-----0-----------0-----0-----------0-----0-------

|---------3-----3-----------3-----3-----------3-----3-----

|---2-2-----2-----2---2-2-----2-----2---2-2-----2-----2---

|-----0-----0-----0-----0-----0-----0-----0-----0-----0---

|---------------------------------------------------------

|---------------------------------------------------------

 

 

Return to my Mandy Moore tabs page

The Tablature is Copyright its respective owners.

Sign Up For My Newsletter
Subscribe | Unsubscribe

Site Map | Disclaimer | Privacy Policy | Media Kit | Submissions/Corrections

Website © 2000-2014 mattsmusicpage.com. All rights reserved.

Legal & DMCA: Matt's Music Page has been providing lyrics and tabs in a legal way, paying royalties each year to a few organizations. Then, all lyrics and tabs were removed from the site. Now, there's a new owner to the site, which purchased it August 26, 2014, and he is in negotiation to obtain licensing from BMI at the moment. If you have a specific DMCA request -- please do not hesitate to contact me via the contact button on top. I will do my very best to keep this site fully legal.

Get our toolbar!