Your One-Stop Source For
Music Lyrics
Bass and Guitar Tabs
and More...
Music Lyrics Bass and Guitar Tabs

 

The Tabs Are Below

Learn To Read Tab
Chords Handbook
Corrections & Additions
Get Official Tab

MANDY MOORE 'SO REAL'

*********************

 

From the album of the same name

Tabbed by Anthony R.G

Changes/Queries: anthony_russell@hotbox.ru

 

There aren't actually any guitars or basses (though there is a synth bass)

in this song, so its going to be synthesizers arranged for guitar. Other than

Yo-Yo, this would have to be one of my favorite Mandy Moore songs. Very

underated in my opinion.

 

Be sure to tune your bass so the lowest string is a 'D' and not an 'E'

 

INTRO

-----

 

The song opens up with the a C minor doing a pitch dive on the synthesizer

 

Bass line (remember DROP D BASS!!!)

 

G|-------------------------

D|-------------------------

A|--3--2--1----------------

D|-5---------1--5--4--3--1-

 

Then this bass line

 

G|--------------------------

D|--------------------------

A|--------------------------

D|-5--5--6-----6--6-8--5----

 

 

String synth melody

 

1|-8~~--------------7--8--10-11-10-8-----

2|-----------------------------------8~--

3|---------------------------------------

4|---------------------------------------

5|---------------------------------------

6|---------------------------------------

 

 

VERSE

-----

 

Cm Ab G

Innocense is what I've got

 

Cm Ab G

It'll take true love to hit the spot

 

 

PRE-CHORUS

----------

Fm Ab Bb

Don't care about your other girls....

 

Fm Ab G

Cause my innocence won't be denied woahhh

 

(intro bass riff)

 

 

CHORUS

------

Ab Bb Cm

Baby it's real, so so real, that I just can't explain

 

Fm

The way that its making me feel

 

Ab G

So so real

 

Baby its real

 

 

CHORUS TAIL

-----------

 

Wah guitar

 

1|-6--4--3---------3------------8~-------

2|----------4--6-----6--4----------------

3|---------------------------------------

4|---------------------------------------

5|---------------------------------------

6|---------------------------------------

 

Cm Ab G

I just can't let go, baby your, baby its real

 

 

CHORUS

------

Ab Bb Cm

Baby it's real, so so real, that I just can't explain

 

Fm

The way that its making me feel

 

Ab G

So so real

 

Repeat with the same chords, strumming in a pulsating rhythm

 

BRIDGE

------

 

Same as the chorus

 

 

Return to my Mandy Moore tabs page

The Tablature is Copyright its respective owners.

Sign Up For My Newsletter
Subscribe | Unsubscribe

Site Map | Disclaimer | Privacy Policy | Media Kit | Submissions/Corrections

Website © 2000-2014 mattsmusicpage.com. All rights reserved.

Legal & DMCA: Matt's Music Page has been providing lyrics and tabs in a legal way, paying royalties each year to a few organizations. Then, all lyrics and tabs were removed from the site. Now, there's a new owner to the site, which purchased it August 26, 2014, and he is in negotiation to obtain licensing from BMI at the moment. If you have a specific DMCA request -- please do not hesitate to contact me via the contact button on top. I will do my very best to keep this site fully legal.

Get our toolbar!