Your One-Stop Source For
Music Lyrics
Bass and Guitar Tabs
and More...
Music Lyrics Bass and Guitar Tabs

 

The Tabs Are Below

Learn To Read Tab
Chords Handbook
Corrections & Additions
Get Official Tab

MANDY MOORE 'ONE SIDED LOVE'

****************************

 

From the album 'Mandy Moore'

Tabbed by Anthony R.G

Changes/Queries: anthony_russell@hotbox.ru

 

This track is kinda like Alanis Morrisette meets George Harrison. Suprisingly this

is probably her most basic song chordally. If you can manage an A flat minor you can pretty much

play the whole song...

 

INTRO

-----

 

On the sitar/banjo sounding instrument, dunno what its called. This bit isn't exact, just

done to get you started. Quite hard to tab as you can imagine.

 

1|-------------------------------------------------------------------

2|-0-2-4---4-4-4-4-4-4-4-4-4-4---4---5-4--2-4-2-5-4--4-2-5-----2-4---

3|-------1---------------------1---1-----------------------1-1-------

4|-------------------------------------------------------------------

5|-------------------------------------------------------------------

6|-------------------------------------------------------------------

 

Then

 

1|--------------------------------x3----------------------------------

2|-2p0-----2p0---------------------|-----------------2p0------2p0-2-2-

3|-----1-1-----1-1-4p1-1-1-3p1-1-1-|-4p1-1-1-3p1-1-1------1-1---------

4|---------------------------------|----------------------------------

5|---------------------------------|----------------------------------

6|--------------------------------------------------------------------

 

 

VERSE

-----

 

Abm

I know you tried your best, thats not good enough for me

 

Understand nevertheless, loves gotta go both ways

 

 

PRE-CHORUS

----------

 

Abm

I wanna help you out, tell you what its all about

 

Fm7

What I feel, what I need, what's it gunna be?

 

Dbm

So whatcha wanna to do, whatcha really wanna do?

 

Abm

I decided everything that I want from you

 

 

CHORUS

------

 

It's just Abm the whole way like the verse

 

 

GUITAR SOLO

-----------

Abm Ebm

1|---------------------------------------------------------

2|-/9-----8--9------11--8h9h11--11-----11--8h9h11--11---9--

3|-------------8-------------------------------------------

4|---------------------------------------------------------

5|---------------------------------------------------------

6|---------------------------------------------------------

 

 

1|------------------------------------------------------------/11-11-11-11\--

2|-/9-----8--9-11---9p8--9---------------------------------------------------

3|--------------------------8--9p8--9p8--9p8\4--9p8\4--9p8\4-----------------

4|---------------------------------------------------------------------------

5|---------------------------------------------------------------------------

6|---------------------------------------------------------------------------

 

 

Return to my Mandy Moore tabs page

The Tablature is Copyright its respective owners.

Sign Up For My Newsletter
Subscribe | Unsubscribe

Site Map | Disclaimer | Privacy Policy | Media Kit | Submissions/Corrections

Website © 2000-2014 mattsmusicpage.com. All rights reserved.

Legal & DMCA: Matt's Music Page has been providing lyrics and tabs in a legal way, paying royalties each year to a few organizations. Then, all lyrics and tabs were removed from the site. Now, there's a new owner to the site, which purchased it August 26, 2014, and he is in negotiation to obtain licensing from BMI at the moment. If you have a specific DMCA request -- please do not hesitate to contact me via the contact button on top. I will do my very best to keep this site fully legal.

Get our toolbar!

 

Starbucks You Are Here Coffee Mug/Cup KENTUCKY - Horses, Banjo, Blue, White
$19.99
Starbucks You Are Here Coffee Mug/Cup KENTUCKY - Horses, Banjo, Blue, White picture


KNOWLES ROCKWELL HERITAGE "THE BANJO PLAYER" FIRST EDITION 1989 PLATE COA
$5.99
KNOWLES ROCKWELL HERITAGE


Vintage Postcard 1981 Disney World Banjo Kings Main Street USA 1981 Postmark
$4.99
 Vintage Postcard 1981 Disney World Banjo Kings Main Street USA 1981 Postmark picture


Banjo Barometer With Thermometer Hygrometer 490mm
$84.76
Banjo Barometer With Thermometer Hygrometer 490mm picture


ANTIQUE JAPANESE NIPPON FIGURINE SET OF 3 WOMEN GEISHA PLAYING DRUM BANJO FAN
$24.0
ANTIQUE JAPANESE NIPPON FIGURINE SET OF 3 WOMEN GEISHA PLAYING DRUM BANJO FAN picture