Your One-Stop Source For
Music Lyrics
Bass and Guitar Tabs
and More...
Music Lyrics Bass and Guitar Tabs

 

The Tabs Are Below

Learn To Read Tab
Chords Handbook
Corrections & Additions
Get Official Tab

MANDY MOORE 'LOCK ME IN YOUR HEART'

***********************************

 

From the album 'So Real'

Tabbed by Anthony R.G

Changes/Queries: anthony_russell@hotbox.ru

 

Get out your ol' nylon string for this one. I did my best on the guitar solo, but undoubtedly

it's not perfect. The chords above should help. Can someone check the chords in the pre-chorus

for me, I'm not 100% on them.

 

INTRO

-----

 

1|---------------------------------------------------------------------------

2|-----9---------------9---------------7-5-4-5-4-------------7-9-7-----------

3|---6---9-8-9-8-6---6---9-8-9-8-6---6-----------6---6---6---------9-8-6-----

4|-6---------------6---------------4---------------4---6---7-------------7---

5|-------------------------------------------------------------------------9-

6|---------------------------------------------------------------------------

 

 

VERSE

-----

 

C#m

There was a time when I was, all alone

 

F#m A G#m

Waiting for someone I could call my own

 

 

PRE-CHORUS

----------

 

A B C#m F#m G#m

Take me to a place where the magic between us becomes real

 

A G#m C#m F#m G#m A B

Take me all the way, boy I want you to

 

 

CHORUS

------

 

C#m F#m

Lock me in your heart and throw away the key

 

A G#m

Show me love, the way its supposed to be

 

C#m F#m

Lock me in your heart and never let me go

 

A B

I must confess you are the best, so baby come and take me

 

 

GUITAR SOLO

-----------

 

C#m F#m A G#m C#m F#m A

 

1|---------0-2-4-----4h5p4\2-0----0--2--5--4----7-5-4------0-2-4-5-4-2-4-2---------

2|------------------------------4-------7----------------------------------5-4-5---

3|---------------------------------------------------------------------------------

4|---------------------------------------------------------------------------------

5|---------------------------------------------------------------------------------

6|---------------------------------------------------------------------------------

 

G#m C#

 

1|-----------------0--2--0--3/4--3/4---------

2|-4h5p4\2-------0-2--4--2--4/5--4/5---2-----

3|-------------------------------------------

4|-------------------------------------------

5|-------------------------------------------

6|-------------------------------------------

 

KEY CHANGE CHORUS

-----------------

 

Dm Gm

Lock me in your heart and throw away the key

 

Bb Am

Show me love, the way its supposed to be

 

Dm Gm

Lock me in your heart and never let me go

 

Bb C

I must confess you are the best, so baby come and take me

 

 

***Overdubs over end bit***

 

1|-4/5-4/5-4/5~~-----6p5p4----------3--6-5-----

2|------------------------------5h6--------6---

3|-------------------------------------------7-

4|---------------------------------------------

5|---------------------------------------------

6|---------------------------------------------

 

 

Return to my Mandy Moore tabs page

The Tablature is Copyright its respective owners.

Sign Up For My Newsletter
Subscribe | Unsubscribe

Site Map | Disclaimer | Privacy Policy | Media Kit | Submissions/Corrections

Website © 2000-2014 mattsmusicpage.com. All rights reserved.

Legal & DMCA: Matt's Music Page has been providing lyrics and tabs in a legal way, paying royalties each year to a few organizations. Then, all lyrics and tabs were removed from the site. Now, there's a new owner to the site, which purchased it August 26, 2014, and he is in negotiation to obtain licensing from BMI at the moment. If you have a specific DMCA request -- please do not hesitate to contact me via the contact button on top. I will do my very best to keep this site fully legal.

Get our toolbar!

 

Hard Rock Pin Las Vegas 4th of july red white and blue guitar
$5.0
Hard Rock Pin Las Vegas 4th of july red white and blue guitar picture


Hard Rock Pin Hollywood Fl Bell Girl with dice luggage and guitar
$5.0
Hard Rock Pin Hollywood Fl Bell Girl with dice luggage and guitar picture


Hard Rock Pin Las Vegas King of Clubs Guitar rare only 3 lines of info on back
$5.0
Hard Rock Pin Las Vegas King of Clubs Guitar rare only 3 lines of info on back picture


Hard Rock Pin Edmonton guitar pin
$5.0
Hard Rock Pin Edmonton guitar pin picture


Lladro Guitar Boy #4614 - Beautiful Piece of Lladro
$109.0
Lladro Guitar Boy #4614 - Beautiful Piece of Lladro picture