Your One-Stop Source For
Music Lyrics
Bass and Guitar Tabs
and More...
Music Lyrics Bass and Guitar Tabs

 

The Tabs Are Below

Learn To Read Tab
Chords Handbook
Corrections & Additions
Get Official Tab

MANDY MOORE 'LET ME BE THE ONE'

 

From the album 'So Real'

Tabbed by Anthony R.G

Changes/Queries: anthony_russell@hotbox.ru

 

INTRO

-----

 

Chords:

 

F#m /D F# /C#

 

F#m /D F# /C# B A

 

Play this little melody over the above chords

 

1|---------------------

2|-12h14-14----10--12--

3|----------11---------

4|---------------------

5|---------------------

6|---------------------

 

 

VERSE

-----

F#m D

I hear you records on the radio

 

F#m C# B A

I see you talking on the late, late show

 

F#m D F#m C# B A

Every girl wants to be your friend

 

F#m D F#m C#

 

1|-------------------------------------------------------------------

2|-----0-h-2-----------0-h-2---------------0-h-2--------------0-h-2--

3|---2---------------2------------------2-------------------2--------

4|-4---------------0------------------4------------------------------

5|--------------------------------------------------------4----------

6|-------------------------------------------------------------------

 

 

PRE-CHORUS

----------

 

Bm C#m

We used to be together

 

D C#m

Makin' dreams, makin' plans

 

Bm C#m

You left that world behind

 

D F

Now I'm askin' you, won't you

 

 

CHORUS

------

 

F#m D

Let me be the one you give your love to

 

F#m C# B A

One you need baby

 

 

F#m D

Let me be the one you give your love to

 

F#m C# B A

The one that gives you lovin' oh oh

 

 

Let me be, let me be, baby let me be the only one

 

Bass fill:

 

1|------------

2|------------

3|-4-5-4-3-4--

4|------------

 

 

Return to my Mandy Moore tabs page

The Tablature is Copyright its respective owners.

Sign Up For My Newsletter
Subscribe | Unsubscribe

Site Map | Disclaimer | Privacy Policy | Media Kit | Submissions/Corrections

Website © 2000-2014 mattsmusicpage.com. All rights reserved.

Legal & DMCA: Matt's Music Page has been providing lyrics and tabs in a legal way, paying royalties each year to a few organizations. Then, all lyrics and tabs were removed from the site. Now, there's a new owner to the site, which purchased it August 26, 2014, and he is in negotiation to obtain licensing from BMI at the moment. If you have a specific DMCA request -- please do not hesitate to contact me via the contact button on top. I will do my very best to keep this site fully legal.

Get our toolbar!