Your One-Stop Source For
Music Lyrics
Bass and Guitar Tabs
and More...
Music Lyrics Bass and Guitar Tabs

Custom Search
Matt's Music Page is Currently For Sale

 

 

The Tabs Are Below

"Lucky Number"

 

Verse

Repeat 2x

 

E-----------------------------------------------------------

B-----------------------------------------------------------

G----------------------------------------------------------

D----------------------------------------------------------

A-------9----9----9----9----9----9----9----9---------

E ---7----7----7----7----6----6----6----6------------

 

 

 

E-----------------------------------------------------------

B-----------------------------------------------------------

G----------------------------------------------------------

D------8----8----8----8----9----9----9----9------------

A---6----6----6----6----7----7----7----7---------------

E ----------------------------------------------------------

 

 

Chorus

Repeat 2x

 

E ---------------------------------------------------------------------

B ----------------------------------------------------------------------

G ------------------------------------------------------------------------

D -----------------------------------------------8-8-8-8-8-8-8-8----

A ---9-9-9-9-9-9-9-9-9-9-9-9-9-9-9-9-6-6-6-6-6-6-6-6-----

E ---7-7-7-7-7-7-7-7-6-6-6-6-6-6-6-6--------------------------

 

E ------------------------------------------

B ------------------------------------------

G ------------------------------------------

D ---9-9-9-9--------------------------------

A ---7-7-7-7-8-8-9-9------------------------

E-------------- 6-6-7-7------------------------

Return to my Jimmy's Lover tabs page

The Tablature is Copyright its respective owners.

Sign Up For My Newsletter
Subscribe | Unsubscribe

Site Map | Disclaimer | Privacy Policy | Media Kit | Submissions/Corrections

Website © 2000-2013 mattsmusicpage.com. All rights reserved. Operated by MM Page, LLC

Custom Search
Get our toolbar!