Your One-Stop Source For
Music Lyrics
Bass and Guitar Tabs
and More...
>Music Lyrics Bass and Guitar Tabs

 

The Linkin Park Guitar Tabs Are Below

Learn To Read Tab
Chords Handbook
Corrections & Additions
Get Official Tab
Linkin Park tabs @ 911Tabs

Song: X-ecutioner Style

Artist: Linkin Park

Album: Reanimation

Tabbed by: Zeifer

Email: sakagami_zyx@hotmail.com

Tuning: Drop D

 

Intro

e|----------------------------------------------|

B|----------------------------------------------|

G|----------------------------------------------|

D|----1-0-xx-1-xx-1-xxxx-1-0-xx-1-xx-1-----5*---|

A|----1-0-xx-1-xx-1-xxxx-1-0-xx-1-xx-1--5*------|

D|----1-0-xx-1-xx-1-xxxx-1-0-xx-1-xx-1----------|

 

e|----------------------------------------------|

B|----------------------------------------------|

G|----------------------------------------------|

D|----1-0-xx-1-xx-1-xxx-1-0----------------5*---|

A|----1-0-xx-1-xx-1-xxx-1-0-------------5*------|

D|----1-0-xx-1-xx-1-xxx-1-0---------------------|

 

Chorus

 

e|----------------------------------------------|

B|----------------------------------------------|

G|----------------------------------------------|

D|----1-0-xx-1-xx-1-xxxx-1-0-xx-1-xx-1-----5*---|

A|----1-0-xx-1-xx-1-xxxx-1-0-xx-1-xx-1--5*------|

D|----1-0-xx-1-xx-1-xxxx-1-0-xx-1-xx-1----------|

 

e|----------------------------------------------|

B|----------------------------------------------|

G|----------------------------------------------|

D|----1-0-xx-1-xx-1-xxxx-1-0-xx-1----------5*---|

A|----1-0-xx-1-xx-1-xxxx-1-0-xx-1-------5*------|

D|----1-0-xx-1-xx-1-xxxx-1-0-xx-1---------------|

 

e|----------------------------------------------|

B|----------------------------------------------|

G|----------------------------------------------|

D|----1-0-xx-1-xx-1-xxxx-1-0-xx-1-xx-1-----5*---|

A|----1-0-xx-1-xx-1-xxxx-1-0-xx-1-xx-1--5*------|

D|----1-0-xx-1-xx-1-xxxx-1-0-xx-1-xx-1----------|

 

e|----------------------------------------------|

B|----------------------------------------------|

G|----------------------------------------------|

D|----1-0-xx-1-xx-1-xxxx-1-0--------------------|

A|----1-0-xx-1-xx-1-xxxx-1-0--------------------|

D|----1-0-xx-1-xx-1-xxxx-1-0--------------------|

 

Verse

e|----------------------------------------------|

B|-o------------------------------------------o-|

G|----------------------------------------------| x4

D|----1-1-0---1-1-0----1-0---1p0----------------|

A|-o--1-1-0---1-1-0----1-0---1p0--------------o-|

D|----1-1-0---1-1-0----1-0---1p0----------------|

 

e|----------------------------------------------|

B|----------------------------------------------|

G|----------------------------------------------|

D|----1-1-0------------------------1-x-1-x-1----|

A|----1-1-0------------------------1-x-1-x-1----|

D|----1-1-0------------------------1-x-1-x-1----|

 

Chorus

 

e|----------------------------------------------|

B|----------------------------------------------|

G|----------------------------------------------|

D|----1-0-xx-1-xx-1-xxxx-1-0-xx-1-xx-1-----5*---|

A|----1-0-xx-1-xx-1-xxxx-1-0-xx-1-xx-1--5*------|

D|----1-0-xx-1-xx-1-xxxx-1-0-xx-1-xx-1----------|

 

e|----------------------------------------------|

B|----------------------------------------------|

G|----------------------------------------------|

D|----1-0-xx-1-xx-1-xxxx-1-0-xx-1----------5*---|

A|----1-0-xx-1-xx-1-xxxx-1-0-xx-1-------5*------|

D|----1-0-xx-1-xx-1-xxxx-1-0-xx-1---------------|

 

e|----------------------------------------------|

B|----------------------------------------------|

G|----------------------------------------------|

D|----1-0-xx-1-xx-1-xxxx-1-0-xx-1-xx-1-----5*---|

A|----1-0-xx-1-xx-1-xxxx-1-0-xx-1-xx-1--5*------|

D|----1-0-xx-1-xx-1-xxxx-1-0-xx-1-xx-1----------|

 

e|----------------------------------------------|

B|----------------------------------------------|

G|----------------------------------------------|

D|----1-0-xx-1-xx-1-xxxx-1-0--------------------|

A|----1-0-xx-1-xx-1-xxxx-1-0--------------------|

D|----1-0-xx-1-xx-1-xxxx-1-0--------------------|

Return to my Linkin Park Guitar Tabs page

The Guitar Tablature is Copyright its respective owners.

Sign Up For My Newsletter
Subscribe | Unsubscribe

Site Map | Disclaimer | Privacy Policy | Media Kit | Submissions/Corrections

Website © 2000-2014 mattsmusicpage.com. All rights reserved.

Legal & DMCA: Matt's Music Page has been providing lyrics and tabs in a legal way, paying royalties each year to a few organizations. Then, all lyrics and tabs were removed from the site. Now, there's a new owner to the site, which purchased it August 26, 2014, and he is in negotiation to obtain licensing from BMI at the moment. If you have a specific DMCA request -- please do not hesitate to contact me via the contact button on top. I will do my very best to keep this site fully legal.

Get our toolbar!

 

GILBERT 1807 BANJO CLOCK Needs REPAIR NOT WORKING
$60.0
GILBERT 1807 BANJO CLOCK  Needs REPAIR NOT WORKING picture


WDW-Dixie Landing's Resort Mickey Mouse Playing the Banjo Pin
$6.0
WDW-Dixie Landing's Resort Mickey Mouse Playing the Banjo Pin picture


american banjo clock case e howard type
$0.99
american banjo clock case e howard type picture


1995 David Frykman Collection Angel Banjo Old Bearded Man Figurine Coyne's & Co
$38.95
1995 David Frykman Collection Angel Banjo Old Bearded Man Figurine Coyne's & Co picture


VINTAGE 4 5/8" WINGSPAN BRASS FINISH METAL EAGLE FOR BANJO CLOCK (WORTH A L00K)
$14.99
VINTAGE 4 5/8