Your One-Stop Source For
Music Lyrics
Bass and Guitar Tabs
and More...
Music Lyrics Bass and Guitar Tabs

 

The Linkin Park Guitar Tabs Are Below

Learn To Read Tab
Chords Handbook
Corrections & Additions
Get Official Tab
Linkin Park tabs @ 911Tabs

Title: What Ive Done

Artist: Linkin Park

Album: Minutes To Midnight

 

 

Tuning: Drop D (D A D G B E)

 

 

INTRO

 

Piano Riff (Played Throughout the song)

 

E|--10-10-11-10-10-|

B|-8--8--------8---|

G|-----------------|

D|-----------------|

A|-----------------|

D|-----------------|

 

G Bb F C

E|------|------|------|------|

B|------|------|------|------|

G|------|------|-10---|-5----|

D|-5----|-8----|-10---|-5----|

A|-5----|-8----|-8----|-3----|

D|-5----|-8----|------|------|

 

 

CHORUS(1)

 

E|-------------------------|-------------------------|

B|-------------------------|-------------------------|

G|-------------------------|-------------------------|

D|-------------------------|-------------------------|

A|-13-13-13-13-13-13-12-12-|-13-13-13-13-13-13-15-15-|

D|-------------------------|-------------------------|

 

E|-------------------------|-------------------------| |-------|

B|-------------------------|-------------------------| Repeat |-------|

G|-------------------------|-------------------------| & then |-------|

D|-------------------------|-------------------------| end on: |-------|

A|-12-12-12-12-12-12-12-12-|-10-10-10-10-10-10-12-12-| |-13----|

D|-------------------------|-------------------------| |-------|

 

--BACKING CHORDS--

G Bb F C

E|------|------|------|------|

B|------|------|------|------|

G|------|------|------|------|

D|-5----|-8----|-3----|-10---| * play each chord 8x

A|-5----|-8----|-3----|-10---|

D|-5----|-8----|-3----|-10---|

 

 

VERSE 1 (Piano chords arranged for Guitar)

 

(G, Bb, F, C) x2

 

 

PRE CHORUS

 

Eb F

E|------|------|

B|------|------|

G|------|------|

D|-1----|-3----|

A|-1----|-3----|

D|-1----|-3----|

 

 

--REPEAT CHORUS(1)--

 

 

VERSE 2 (Piano chords arranged for Guitar)

 

(Bb, F, C, G, B, F, C)

 

 

--REPEAT PRE CHORUS--

 

 

CHORUS(2)

 

E|-------------------------|-------------------------|

B|-------------------------|-------------------------|

G|-------------------------|-------------------------|

D|-------------------------|-------------------------|

A|-13-13-13-13-13-13-12-12-|-13-13-13-13-13-13-15-15-|

D|-------------------------|-------------------------|

 

E|-------------------------|-------------------------|

B|-------------------------|-------------------------|

G|-------------------------|-------------------------|

D|-------------------------|-------------------------|

A|-12-12-12-12-12-12-12-12-|-10-10-10-10-10-10-12-12-|

D|-------------------------|-------------------------|

 

E|-------------------------|-------------------------|

B|-------------------------|-------------------------|

G|-------------------------|-------------------------|

D|-------------------------|-------------------------|

A|-13-13-13-13-13-13-12-12-|-13-13-13-13-13-13-15-15-|

D|-------------------------|-------------------------|

 

E|-------------------------|-------------------------|

B|-------------------------|-------------------------|

G|-------------------------|-------------------------|

D|-------------------------|-------------------------|

A|-12-12-12-12-12-12-12-12-|-10-10-10-10-12-12-12-12-|

D|-------------------------|-------------------------|

 

E|-------------------------|

B|-------------------------|

G|-------------------------|

D|-------------------------|

A|-13-13-13-13-15-15-15-15-|

D|-------------------------|

 

 

--BACKING CHORDS--

G Bb F C

E|------|------|------|------|

B|------|------|------|------|

G|------|------|------|------|

D|-5----|-8----|-3----|-10---| * play each chord 8x

A|-5----|-8----|-3----|-10---|

D|-5----|-8----|-3----|-10---|

 

 

BRIDGE (Part 1 - Solo)

 

Guitar 1

E|--------------------------------------|

B|--------------------------------------|

G|----------------------------12--15----|

D|-12-15-12-15p12-15p12-15p12-----------|

A|--------------------------------------|

D|--------------------------------------|

x2

E|-------------------------------------------|

B|-------------------------------------------|

G|----------------------------12--14--12-----|

D|-12-15-12-15p12-15p12-15p12-------------15-|

A|-------------------------------------------|

D|-------------------------------------------|

 

E|-------------------------------|

B|-------------------------------|

G|-12--15--12--------------12----|

D|-------12--12--15p12-15--------|

A|-------------------------------|

D|-------------------------------|

 

Guitar 2 (Backing)

E|-----------------|-----------------|-----------------|

B|-----------------|-----------------|-----------------|

G|-----------------|-----------------|-----------------|

D|-5-5-5-5-5-5-5-5-|-8-8-8-8-8-8-8-8-|-3-3-3-3-3-3-3-3-|

A|-5-5-5-5-5-5-5-5-|-8-8-8-8-8-8-8-8-|-3-3-3-3-3-3-3-3-|

D|-5-5-5-5-5-5-5-5-|-8-8-8-8-8-8-8-8-|-3-3-3-3-3-3-3-3-|

 

E|-------------------------| |-------------------------|----|

B|-------------------------| Repeat |-------------------------|----|

G|-------------------------| & finish |-10-10-10-10-12-12-12-12-|----|

D|-10-10-10-10-10-10-10-10-| with: |-10-10-10-10-12-12-12-12-|-5--|

A|-10-10-10-10-10-10-10-10-| |-8--8--8--8--10-10-10-10-|-5--|

D|-10-10-10-10-10-10-10-10-| |-------------------------|-5--|

 

 

BRIDGE (Part 2)

 

E|-------------------------|-------------------------|

B|-------------------------|-------------------------|

G|-------------------------|-------------------------|

D|-------------------------|-------------------------|

A|-13-13-13-13-13-13-12-12-|-13-13-13-13-13-13-15-15-|

D|-------------------------|-------------------------|

 

E|-------------------------|-------------------------|

B|-------------------------|-------------------------|

G|-------------------------|-------------------------|

D|-------------------------|-------------------------|

A|-12-12-12-12-12-12-12-12-|-10-10-10-10-12-12-12-12-|

D|-------------------------|-------------------------|

 

E|-------------------------|-------------------------|

B|-------------------------|-------------------------|

G|-------------------------|-------------------------|

D|-------------------------|-------------------------|

A|-13-13-13-13-13-13-12-12-|-13-13-13-13-13-13-15-15-|

D|-------------------------|-------------------------|

 

E|-------------------------|-------------------------|

B|-------------------------|-------------------------|

G|-------------------------|-------------------------|

D|-------------------------|-------------------------|

A|-12-12-12-12-12-12-12-12-|-10-10-10-10-10-10-10-10-|

D|-------------------------|-------------------------|

 

E|-------------------------|

B|-------------------------|

G|-------------------------|

D|-------------------------|

A|-10-10-10-10-10-10-10-10-|

D|-------------------------|

 

 

--REPEAT CHORUS(1) TWICE & END WITH INTRO RIFF--

Return to my Linkin Park Guitar Tabs page

The Guitar Tablature is Copyright its respective owners.

Sign Up For My Newsletter
Subscribe | Unsubscribe

Site Map | Disclaimer | Privacy Policy | Media Kit | Submissions/Corrections

Website © 2000-2014 mattsmusicpage.com. All rights reserved.

Legal & DMCA: Matt's Music Page has been providing lyrics and tabs in a legal way, paying royalties each year to a few organizations. Then, all lyrics and tabs were removed from the site. Now, there's a new owner to the site, which purchased it August 26, 2014, and he is in negotiation to obtain licensing from BMI at the moment. If you have a specific DMCA request -- please do not hesitate to contact me via the contact button on top. I will do my very best to keep this site fully legal.

Get our toolbar!