Your One-Stop Source For
Music Lyrics
Bass and Guitar Tabs
and More...
>Music Lyrics Bass and Guitar Tabs

 

The Linkin Park Bass Tabs Are Below

Learn To Read Tab
Chords Handbook
Corrections & Additions
Get Official Tab
Linkin Park tabs @ 911Tabs

What I've Done - Linkin Park

-------------------------------------------------------------------------------

 

Tabbed By : Austin Lindsey

e-mail: austin.lindsey@gmail.com

 

Tuning:standard

 

Intro Let it ring

G|------------------|

D|-----------3------|

A|-------1-------3--|

E|---3--------------|(x2)

G|-------------------------------------------------------------------|

D|-------------------------------------------------------------------|

A|------------------1-1-1-1-1-1-1-1-----------------3-3-3-3-3-3-3----|

E|--3-3-3-3-3-3-3-3-----------------1-1-1-1-1-1-1-1------------------| (x2)

 

G|-----|Stop there after the second time.

D|-----|

A|-----|

E|--3--|

Verse Let ring

 

(In this farewell...) (Cause ive drawn regret...)

G|--------------------------------------------------|

D|--------------------------------------------------|

A|--------------1-------3---------------1-------3---|

E|----------3-------1---------------3-------1-------|

(So let mercy come...)

G|------------------------------|

D|-----------1------------------|

A|------------------------------|

E|-----------------------1------|

 

Chorus

G|-------------------------------------------------------------------|

D|-------------------------------------------------------------------|

A|------------------1-1-1-1-1-1-1-1-----------------3-3-3-3-3-3-3----|

E|--3-3-3-3-3-3-3-3-----------------1-1-1-1-1-1-1-1------------------| (x2)

 

Go strait into the verse afterwards.

G|--------------------------------------------------|

D|--------------------------------------------------|

A|--------------1-------3---------------1-------3---|

E|----------3-------1---------------3-------1-------|

G|------------------------------|

D|-----------1------------------|

A|------------------------------|

E|-----------------------1------|

 

Back to chorus

G|-------------------------------------------------------------------|

D|-------------------------------------------------------------------|

A|------------------1-1-1-1-1-1-1-1-----------------3-3-3-3-3-3-3----|

E|--3-3-3-3-3-3-3-3-----------------1-1-1-1-1-1-1-1------------------|

 

 

G|--------------------------------------------------------------------------------------|

D|--------------------------------------------------------------------------------------|

A|------------------1-1-1-1-1-1-1-1-----------------3-3-3-3-5-5-5-5-6-6-6-6-8-8-8-8-----|

E|--3-3-3-3-3-3-3-3-----------------1-1-1-1-1-1-1-1-------------------------------------|

 

Solo

G|-------------------------------------------------------------------|

D|-------------------------------------------------------------------|

A|------------------1-1-1-1-1-1-1-1-----------------3-3-3-3-3-3-3----|

E|--3-3-3-3-3-3-3-3-----------------1-1-1-1-1-1-1-1------------------|

 

 

G|--------------------------------------------------------------------------------------|

D|--------------------------------------------------------------------------------------|

A|------------------1-1-1-1-1-1-1-1-----------------3-3-3-3-5-5-5-5-6-6-6-6-8-8-8-8-----|

E|--3-3-3-3-3-3-3-3-----------------1-1-1-1-1-1-1-1-------------------------------------|

Dont play until the chorus starts again then play that until the end.

 

 

G|-------------------------------------------------------------------|

D|-------------------------------------------------------------------|

A|------------------1-1-1-1-1-1-1-1-----------------3-3-3-3-3-3-3----|

E|--3-3-3-3-3-3-3-3-----------------1-1-1-1-1-1-1-1------------------| (x4)

Return to my Linkin Park Bass Tabs page

The Tablature is Copyright its respective owners.

Sign Up For My Newsletter
Subscribe | Unsubscribe

Site Map | Disclaimer | Privacy Policy | Media Kit | Submissions/Corrections

Website © 2000-2014 mattsmusicpage.com. All rights reserved.

Legal & DMCA: Matt's Music Page has been providing lyrics and tabs in a legal way, paying royalties each year to a few organizations. Then, all lyrics and tabs were removed from the site. Now, there's a new owner to the site, which purchased it August 26, 2014, and he is in negotiation to obtain licensing from BMI at the moment. If you have a specific DMCA request -- please do not hesitate to contact me via the contact button on top. I will do my very best to keep this site fully legal.

Get our toolbar!

 

GOLD MINING EQUIPMENT LOT OF 2 PRESSURE HOSE BANJO FITTINGS" DREDGE SLUICE PUMP
$3.0
GOLD MINING EQUIPMENT LOT OF 2 PRESSURE HOSE BANJO FITTINGS


Vintage New Haven Mini Banjo Clock Movement
$29.99
Vintage New Haven Mini Banjo Clock Movement  picture


4&1/2" Couple with Banjo ? Figurine Occupied Japan
$9.88
4&1/2


VINTAGE PAIR OF BANJO CLOCK SIDE DECORATIONS WM240
$19.99
VINTAGE PAIR OF BANJO CLOCK SIDE DECORATIONS  WM240 picture


Vintage black Americana derogatory black man with a banjo cardboard cutout rare
$15.0
Vintage black Americana derogatory black man with a banjo cardboard cutout rare picture