Your One-Stop Source For
Music Lyrics
Bass and Guitar Tabs
and More...
>Music Lyrics Bass and Guitar Tabs

 

The Linkin Park Bass Tabs Are Below

Learn To Read Tab
Chords Handbook
Corrections & Additions
Get Official Tab
Linkin Park tabs @ 911Tabs

Wake - Linkin Park

-------------------------------------------------------------------------------

Album: Minutes To Midnight

Tabbed By: slimk

e-mail: kenderickcraig@yahoo.com

 

Tuning: DADG (Dropped D)

 

Part 1: (1:03)

G|---------------------------------------------------------------|

D|------------------------------------53---3h5---------53---3h5--|

A|---------11-3-----------33-5----------3h5--------------3h5-----|

D|1~-11---------3~-33---------5~-55------------5~-55-------------|

 

Part 2: (1:15)

G|---------------------------------------------------------------|

D|------------------------------------53---3h5---------53---3h5--|

A|---------11-3-----------33-1----------3h5--------------3h5-----|

D|1~-11---------3~-33---------5~-55------------5~-55-------------|

Part 3: (1:26)

G|--------------------------------------|

D|------53------3h5-------53---3h5------|

A|----------3h5-------------3h5---------|

D|5~-55-------------5~-55----------5~---|

 

| / slide up

| \ slide down

| h hammer-on

| p pull-off

| ~ vibrato

| + harmonic

| x Mute note

Return to my Linkin Park Bass Tabs page

The Tablature is Copyright its respective owners.

Sign Up For My Newsletter
Subscribe | Unsubscribe

Site Map | Disclaimer | Privacy Policy | Media Kit | Submissions/Corrections

Website © 2000-2014 mattsmusicpage.com. All rights reserved.

Legal & DMCA: Matt's Music Page has been providing lyrics and tabs in a legal way, paying royalties each year to a few organizations. Then, all lyrics and tabs were removed from the site. Now, there's a new owner to the site, which purchased it August 26, 2014, and he is in negotiation to obtain licensing from BMI at the moment. If you have a specific DMCA request -- please do not hesitate to contact me via the contact button on top. I will do my very best to keep this site fully legal.

Get our toolbar!

 

Miniature Guitar NOFX with free stand
$14.47
Miniature Guitar NOFX with free stand picture


Woody's Roundup Guitar Disney Pixar Toy Story Hallmark 2012 Magic Music NEW
$13.5
Woody's Roundup Guitar Disney Pixar Toy Story Hallmark 2012 Magic Music NEW picture


We Wish You A Merry Christmas Guitar HALLMARK 2013 Magic Sound Ornament NEW
$14.95
We Wish You A Merry Christmas Guitar HALLMARK 2013 Magic Sound Ornament NEW picture


Vintage Hand Tinted Color Photo Pretty Girl Martha Playing Guitar Music 630407
$9.99
Vintage Hand Tinted Color Photo Pretty Girl Martha Playing Guitar Music 630407 picture


Rockin Around the Christmas Tree 2012 Magic Guitar Ornament NEW in Box
$17.95
Rockin Around the Christmas Tree 2012 Magic Guitar Ornament NEW in Box picture