Your One-Stop Source For
Music Lyrics
Bass and Guitar Tabs
and More...
Music Lyrics Bass and Guitar Tabs

 

The Linkin Park Guitar Tabs Are Below

Learn To Read Tab
Chords Handbook
Corrections & Additions
Get Official Tab
Linkin Park tabs @ 911Tabs

Song- "Valentine's Day"

Album-Minutes to Midnight

 

Verse/Pre chorous

Gtr 1

e-----------5---------------------------------5-----------------------|

b---6---8-------8---6---8---6---6-----6---8-------8---6---8---6---6---|

g-7---7---7---7---7---7---7---7-----5---5---5---5---5---5---5---5-----|

d---------------------------------------------------------------------|

a---------------------------------------------------------------------|

D---------------------------------------------------------------------|

 

Pre Chorous (second) Gtr 2

 

e------------------------------------------------------------------------|

b------------------------------------------------------------------------|

g------------------------------------------------------------------------|

d------------------------------------------------------------------------|

a-1-1-1-1-1-1-1-1-3-3-3-3-3-3-3-3-----------------3-3-3-3-3-3-3-3--------|

D---------------------------------3-3-3-3-3-3-3-3------------------------|

PM................................................................

 

Bridge

Gtr 1

e-------------------------------|

b-3~~~~~~------------1~~~~~~----|

g-------------------------------|

d-------------------------------|

a-------------------------------|

D-------------------------------|

 

Gtr 2

e-----------------------------------------------------------------|

b-----------------------------------------------------------------|

g-----------------------------------------------------------------|

d-3-3-3-3-3-3-3-3-5-5-5-5-5-5-5-5---------------------------------|

a-1-1-1-1-1-1-1-1-3-3-3-3-3-3-3-3-3-3-3-3-3-3-3-3-3-3-3-3-3-3-3-3-|

D---------------------------------3-3-3-3-3-3-3-3-2-2-2-2-2-2-2-2-|

PM...............................................................

 

To be alone............

e-----------------|

b-----------------|

g-----------------|

d-3-3-3-3-3-3-3-3-|

a-1-1-1-1-1-1-1-1-|

D-----------------|

PM...............

 

Chorous (On a Valentines Daaaaaaaaaaaaaaaaaaaaay)

Gtr 1 (fast strumming)

e-----------------------------------------------------------|

b-----------------------------------------------------------|

g-7-7-7-7-7-7-7-7-7-7-7-7-7-7-7-7-7-7-7-7-7-7-7-7-7-9-9-9-9-|

d-x-x-x-x-x-x-x-x-x-x-x-x-x-x-x-x-x-x-x-x-x-x-x-x-x-x-x-x-x-|

a-5-5-5-5-5-5-5-5-5-5-5-5-5-5-5-5-5-5-5-5-5-5-5-5-5-7-7-7-7-|

D-----------------------------------------------------------|

 

e------------------------------------------------|--------------------------|

b------------------------------------------------|--------------------------|

g-10-10-10-10-10-10-10-10-10-10-10-10-10-10-10-10|5-5-5-5-5-5-5-5-5-5-5-5-5-|

d-x--x--x--x--x--x--x--x--x--x--x--x--x--x--x--x-|x-x-x-x-x-x-x-x-x-x-x-x-x-|

a-8--8--8--8--8--8--8--8--8--8--8--8--8--8--8--8-|3-3-3-3-3-3-3-3-3-3-3-3-3-|

D------------------------------------------------|--------------------------|

 

e-------|

b-------|

g-5-5-5-|

d-x-x-x-|

a-3-3-3-|

D-------|

 

Gtr 2

e---------------------------------|----------------|----------------|

b---------------------------------|----------------|----------------|

g-7-7-7-7-7-7-7-7-7-7-7-7-7-7-7-7-|----------------|5-5-5-5-5-5-5-5-|

d-7-7-7-7-7-7-7-7-7-7-7-7-7-7-7-7-|3-3-3-3-3-3-3-3-|5-5-5-5-5-5-5-5-|

a-5-5-5-5-5-5-5-5-5-5-5-5-5-5-5-5-|3-3-3-3-3-3-3-3-|3-3-3-3-3-3-3-3-|

D---------------------------------|3-3-3-3-3-3-3-3-|----------------|

 

Return to my Linkin Park Guitar Tabs page

The Guitar Tablature is Copyright its respective owners.

Sign Up For My Newsletter
Subscribe | Unsubscribe

Site Map | Disclaimer | Privacy Policy | Media Kit | Submissions/Corrections

Website © 2000-2014 mattsmusicpage.com. All rights reserved.

Get our toolbar!