Your One-Stop Source For
Music Lyrics
Bass and Guitar Tabs
and More...
Music Lyrics Bass and Guitar Tabs

 

The Tabs Are Below

Learn To Read Tab
Chords Handbook
Corrections & Additions
Get Official Tab
Linkin Park tabs @ 911Tabs

dude this is tha hole song and its pritty sweet azz

 

 

C-------------------------

G-------------------------

D#------------------------

A#-----0-----3-----8----5-

F------0-----3-----8----5-

A#-----0-----3-----8----5-

 

Big Main riff (2nd time)

 

C--------------------------

G--------------------------

D#-------------------------

A#-----0-----3-----10----5-

F------0-----3-----10----5-

A#-----0-----3-----10----5-

 

Chorus riff

C-------------------------

G-------------------------

D#------------------------

A#-----0-----3-----8----5- x3

F------0-----3-----8----5-

A#-----0-----3-----8----5-

 

C--------------------------

G--------------------------

D#-------------------------

A#-----0-----3-----10----5- 4th time

F------0-----3-----10----5-

A#-----0-----3-----10----5-

 

Middle choppy section

C-----------------------------------------------------------

G-----------------------------------------------------------

D#------------14-14-------------14-14-----------------14-14-

A#-----0-0---------------8-8-----------------10-10----------

F------0-0----12-12------8-8----12-12--------10-10----12-12-

A#-----0-0---------------8-8-----------------10-10----------

 

C--------------------------

G--------------------------

D#-------------9-s-10-s-9-- repeat x2

A#-----5-5-----------------

F------5-5-----7-s- 8- s-7-

A#-----5-5-----------------

 

C--------------------------------------------------------

G--------------------------------------------------------

D#------------14-14-------------17-17--------------14-14-

A#-----0-0---------------8-8--------------10-10----------

F------0-0----12-12------8-8----15-15-----10-10----12-12-

A#-----0-0---------------8-8--------------10-10----------

 

C--------------------------

G--------------------------

D#-------------9-s-10-s-9-- x1

A#-----5-5-----------------

F------5-5-----7-s- 8- s-7-

A#-----5-5-----------------

 

C--------------------------------------------------------

G--------------------------------------------------------

D#------------14-14-------------17-17--------------12-12-

A#-----0-0---------------8-8--------------10-10----------

F------0-0----12-12------8-8----15-15-----10-10----10-10-

A#-----0-0---------------8-8--------------10-10----------

 

C--------------------------------------------

G--------------------------------------------

D#----------10----------------------------- x1

A#-----5-----------------------------------

F------5----9------------------------------

A#-----5-----------------------------------

 

Ending

C-----------------------------------

G-----------------------------------

D#----------------------------------

A#--00-00-00-00-00-00---------------x3

F---00-00-00-00-00-00---------------

A#--00-00-00-00-00-00-<5><5><5><5>--

 

C---------------------

G---------------------

D#--------------------

A#--00-00-00-00-00-00-

F---00-00-00-00-00-00-

A#--00-00-00-00-00-00-

 

 

_________________________

________

2nd Guitar Big Main Riff

C--------------------------------

G--------------------------------

D#-11--12--14--12--11--12--9--7--

A#-------------------------------

F---9--10--12--10---9--10--7--5--

A#-------------------------------

 

2nd Guitar (chorus)

C----------------------------------

G----------------------------------

D#-11--12--14--12--11--12--14--12--

A#--------------------------------- x1

F---9--10--12--10---9--10--12--10--

A#---------------------------------

 

C--------------------------------

G--------------------------------

D#-11--12--14--12--11--12--9--7--

A#-------------------------------

F---9--10--12--10---9--10--7--5--

A#-------------------------------

 

 

 

Mellow Riff

C------------------------------

G----------------15---13-------

D#------14------------------14-

A#--12-------------------------

F------------------------------

A#-----------------------------

 

l8az keep kool richid

 

Return to my Linkin Park tabs page

The Tablature is Copyright its respective owners.

Sign Up For My Newsletter
Subscribe | Unsubscribe

Site Map | Disclaimer | Privacy Policy | Media Kit | Submissions/Corrections

Website © 2000-2014 mattsmusicpage.com. All rights reserved.

Legal & DMCA: Matt's Music Page has been providing lyrics and tabs in a legal way, paying royalties each year to a few organizations. Then, all lyrics and tabs were removed from the site. Now, there's a new owner to the site, which purchased it August 26, 2014, and he is in negotiation to obtain licensing from BMI at the moment. If you have a specific DMCA request -- please do not hesitate to contact me via the contact button on top. I will do my very best to keep this site fully legal.

Get our toolbar!