Your One-Stop Source For
Music Lyrics
Bass and Guitar Tabs
and More...
Music Lyrics Bass and Guitar Tabs

 

The Tabs Are Below

Learn To Read Tab
Chords Handbook
Corrections & Additions
Get Official Tab
Linkin Park tabs @ 911Tabs

Points of Authority/99 Problems/One Step Closer

 

Intro/Verse (Points of Authority)

Eb|--------------------------------------------------------------------------|

Bb|--------------------------------------------------------------------------|

Gb|--------------------------------------------------------------------------|

Db|2-2-x-x-x-0-2-2-3-0|2-2-x-x-x-2-0-3|2-2-x-x-x|0-2-2-3-0-2-2-x-x|----------|

Ab|2-2-x-x-x-0-2-2-3-0|2-2-x-x-x-2-0-3|2-2-x-x-x|0-2-2-3-0-2-2-x-x|----------|

Db|2-2-x-x-x-0-2-2-3-0|2-2-x-x-x-2-0-3|2-2-x-x-x|0-2-2-3-0-2-2-x-x|----------|

 

Repeat first 2 bars of Intro/Verse (Points of Authority) 10 times

 

Chorus 1 (Points of Authority)

Eb|--------------------------------------------------------------------------|

Bb|--------------------------------------------------------------------------|

Gb|--------------------------------------------------------------------------|

Db|2--------|3--------|2--------|3-------2-0-3|------------------------------|

Ab|2--------|3--------|2--------|3-------2-0-3|------------------------------|

Db|2--------|3--------|2--------|3-------2-0-3|------------------------------|

 

Repeat first 2 bars of Verse (Points of Authority) 3 times

Repeat 1st bar of Verse (Points of Authority) once

Repeat 3rd bar of Verse (Points of Authority) once

Repeat first 2 bars of Verse (Points of Authority) 8 times

 

Chorus 2 (Points of Authority)

Eb|--------------------------------------------------------------------------|

Bb|--------------------------------------------------------------------------|

Gb|--------------------------------------------------------------------------|

Db|2-------|3--------|2--------|3--------|2--------|3--------|2--------|-----|

Ab|2-------|3--------|2--------|3--------|2--------|3--------|2--------|-----|

Db|2-------|3--------|2--------|3--------|2--------|3--------|2--------|-----|

 

Intro (One Step Closer)

Eb|--------------------------------------------------------------------------|

Bb|--------------------------------------------------------------------------|

Gb|--------------------------------------------------------------------------|

Db|--------------------------------------------------------------------------|

Ab|-------7|--------|-------7|--------|-------7|--------|-------7|--------|--|

Db|0-5*-7*-|8-7*-0-3|0-5*-7*-|8-7*-0-3|0-5*-7*-|8-7*-0-3|0-5*-7*-|8-7*-0-3|--|

 

Verse (One Step Closer)

Eb|--------------------------------------------------------------------------|

Bb|--------------------------------------------------------------------------|

Gb|------9-9-9|------5-5-5|------9-9-9|------5-5-5|--------------------------|

Db|0-0--------|8-7--------|0-0--------|8-7--------|--------------------------|

Ab|0-0---7-7-7|8-7---3-3-3|0-0---7-7-7|8-7---3-3-3|--------------------------|

Db|0-0-x------|8-7-x------|0-0-x------|8-7-x------|--------------------------|

 

Repeat Verse (One Step Closer) 3 times

 

Prechorus 1 (One Step Closer)

Eb|--------------------------------------------------------------------------|

Bb|--------------------------------------------------------------------------|

Gb|--------------------------------------------------------------------------|

Db|5-5-x-x-x|5-5-x-x-x|5-5-x-x-x|5-5-x-x-x|----------------------------------|

Ab|5-5-x-x-x|5-5-x-x-x|5-5-x-x-x|5-5-x-x-x|----------------------------------|

Db|5-5-x-x-x|5-5-x-x-x|5-5-x-x-x|5-5-x-x-x|----------------------------------|

 

Repeat Prechorus 1 (One Step Closer)

Repeat Verse (One Step Closer) twice

 

Prechorus 2 (One Step Closer)

Eb|--------------------------------------------------------------------------|

Bb|--------------------------------------------------------------------------|

Gb|--------------------------------------------------------------------------|

Db|5-5-x-x-x|5-5-x-x-x|5-5-x-x-x|5-5-x-x-x|----------------------------------|

Ab|5-5-x-x-x|5-5-x-x-x|5-5-x-x-x|5-5-x-x-x|----------------------------------|

Db|5-5-x-x-x|5-5-x-x-x|5-5-x-x-x|5-5-x-x-x|----------------------------------|

 

Eb|--------------------------------------------------------------------------|

Bb|--------------------------------------------------------------------------|

Gb|---------|---------|---------|----2*------|-------------------------------|

Db|5-5-x-x-x|5-5-x-x-x|5-5-x-x-x|5-5---2*2*2*|-------------------------------|

Ab|5-5-x-x-x|5-5-x-x-x|5-5-x-x-x|5-5---------|-------------------------------|

Db|5-5-x-x-x|5-5-x-x-x|5-5-x-x-x|5-5---------|-------------------------------|

 

Chorus (One Step Closer)

Eb|--------------------------------------------------------------------------|

Bb|--------------------------------------------------------------------------|

Gb|--------------------------------------------------------------------------|

Db|0-0--12-12-12-12|10-10--7-7-7-7|10-10--5-5-5-5|7-7--3-3-3-3|--------------|

Ab|0-0--12-12-12-12|10-10--7-7-7-7|-8--8--5-5-5-5|7-7--1-1-1-1|--------------|

Db|0-0--12-12-12-12|10-10--7-7-7-7|-8--8--5-5-5-5|7-7--1-1-1-1|--------------|

(One more time, 12s and 10s, not 1 & 2 etc.)

 

Repeat Chorus (One Step Closer) 3 times

 

Outro

Eb|--------------------------------------------------------------------------|

Bb|--------------------------------------------------------------------------|

Gb|--------------------------------------------------------------------------|

Db|3-3-3-3-3-3-3-3|----------------------------------------------------------|

Ab|1-1-1-1-1-1-1-1|----------------------------------------------------------|

Db|1-1-1-1-1-1-1-1|----------------------------------------------------------|

 

Repeat Intro (One Step Closer)

 

Bridge

Eb|--------------------------------------------------------------------------|

Bb|--------------------------------------------------------------------------|

Gb|--------------------------------------------------------------------------|

Db|1-0-x-x-0-0-3-1-0-6-0-3|------------|1-0-x-x-0-0-3-1-0-1-1-1|-------------|

Ab|1-0-x-x-0-0-3-1-0-6-0-3|Repeat-twice|1-0-x-x-0-0-3-1-0-1-1-1|-------------|

Db|1-0-x-x-0-0-3-1-0-6-0-3|------------|1-0-x-x-0-0-3-1-0-1-1-1|-------------|

| P.M.|

Repeat 1st bar of Bridge 4 times

Repeat Chorus (One Step Closer) 4 times

Repeat Outro

END Points of Authority/99 Problems/One Step Closer

 

 

Return to my Linkin Park tabs page

The Tablature is Copyright its respective owners.

Sign Up For My Newsletter
Subscribe | Unsubscribe

Site Map | Disclaimer | Privacy Policy | Media Kit | Submissions/Corrections

Website © 2000-2014 mattsmusicpage.com. All rights reserved.

Legal & DMCA: Matt's Music Page has been providing lyrics and tabs in a legal way, paying royalties each year to a few organizations. Then, all lyrics and tabs were removed from the site. Now, there's a new owner to the site, which purchased it August 26, 2014, and he is in negotiation to obtain licensing from BMI at the moment. If you have a specific DMCA request -- please do not hesitate to contact me via the contact button on top. I will do my very best to keep this site fully legal.

Get our toolbar!

 

1939 LYRIC THEATRE New York PHOTO
$5.83
1939 LYRIC THEATRE New York PHOTO picture


Star Spangled Banner or Marines Hymn lyrics signed by WWII Charles W. Lindberg
$10.0
Star Spangled Banner or Marines Hymn lyrics signed by WWII Charles W. Lindberg picture


OLD LARGE HISTORIC PHOTO OF THE LYRIC THEATRE, SYDNEY c1930s, WAR BONDS BOOTH
$7.42
OLD LARGE HISTORIC PHOTO OF THE LYRIC THEATRE, SYDNEY c1930s, WAR BONDS BOOTH picture


SONG OF REVOLUTION CARD SET WITH 13 MOST FAVORED COMMUNIST SONGS LYRICS + NOTES
$24.99
SONG OF REVOLUTION CARD SET WITH 13 MOST FAVORED COMMUNIST SONGS LYRICS + NOTES picture


OLD LARGE HISTORIC PHOTO OF THE LYRIC THEATRE, SYDNEY c1930s, WAR LOANS BOOTH
$7.42
OLD LARGE HISTORIC PHOTO OF THE LYRIC THEATRE, SYDNEY c1930s, WAR LOANS BOOTH picture