Your One-Stop Source For
Music Lyrics
Bass and Guitar Tabs
and More...
>Music Lyrics Bass and Guitar Tabs

 

The Tabs Are Below

Learn To Read Tab
Chords Handbook
Corrections & Additions
Get Official Tab
Linkin Park tabs @ 911Tabs

Numb/Encore

 

Intro (Fast tremolo effect)

Eb|------------------------15|---------|---------15|---------|---------------|

Bb|15-15-15-15-15-15-18-15---|---------|15-18-15---|---------|---------------|

Gb|--------------------------------------------------------------------------|

Db|--------------------------------------------------------------------------|

Ab|--------------------------------------------------------------------------|

Db|--------------------------------------------------------------------------|

 

Eb|---------15-18-17|--------|---------18-17---|--------|--------------------|

Bb|15-18-15---------|--------|15-18-15-------18|--------|--------------------|

Gb|--------------------------------------------------------------------------|

Db|--------------------------------------------------------------------------|

Ab|--------------------------------------------------------------------------|

Db|--------------------------------------------------------------------------|

Repeat this staff

(These are all 15s, 17s, and 18s, not 1 & 5 etc.)

 

Verse/Chorus (Clean guitar)

Eb|10--------|6--------|-8-------|-8-------|---------------------------------|

Bb|--------------------------------------------------------------------------|

Gb|12--------|8--------|10-------|10-------|---------------------------------|

Db|12--------|8--------|-8-------|10-------|---------------------------------|

Ab|10--------|6--------|---------|-8-------|---------------------------------|

Db|--------------------------------------------------------------------------|

Repeat once

 

Prechorus (Clean guitar)

Eb|6---------|-8-------|10-------|-8-------|---------------------------------|

Bb|--------------------------------------------------------------------------|

Gb|8---------|10-------|12-------|10-------|---------------------------------|

Db|8---------|10-------|12-------|-8-------|---------------------------------|

Ab|6---------|-8-------|10-------|---------|---------------------------------|

Db|--------------------------------------------------------------------------|

Repeat once

(Once again, 10s and 12s, not 1 & 0 etc.)

 

Repeat Chorus (remember to repeat)

Repeat Verse twice (DO NOT repeat on the second time)

Repeat Prechorus (remember to repeat)

Repeat Verse

Repeat Prechorus

Repeat Chorus twice

 

Outro (Fast tremolo effect)

Eb|---------15-18-17-17-17-17-17|--------------------------------------------|

Bb|15-18-15---------------------|--------------------------------------------|

Gb|--------------------------------------------------------------------------|

Db|--------------------------------------------------------------------------|

Ab|--------------------------------------------------------------------------|

Db|--------------------------------------------------------------------------|

END Numb/Encore

 

 

Return to my Linkin Park tabs page

The Tablature is Copyright its respective owners.

Sign Up For My Newsletter
Subscribe | Unsubscribe

Site Map | Disclaimer | Privacy Policy | Media Kit | Submissions/Corrections

Website © 2000-2014 mattsmusicpage.com. All rights reserved.

Legal & DMCA: Matt's Music Page has been providing lyrics and tabs in a legal way, paying royalties each year to a few organizations. Then, all lyrics and tabs were removed from the site. Now, there's a new owner to the site, which purchased it August 26, 2014, and he is in negotiation to obtain licensing from BMI at the moment. If you have a specific DMCA request -- please do not hesitate to contact me via the contact button on top. I will do my very best to keep this site fully legal.

Get our toolbar!

 


Banjo Glass Fumed Opal Chillum New
$
Banjo Glass Fumed Opal Chillum New picture


Vintage Ronson Art Metal Works Banjo Lighter with Original Box & Instructions
$
Vintage Ronson Art Metal Works Banjo Lighter with Original Box & Instructions picture


Animated Dueling Banjo Skeletons Halloween Decorations
$
Animated Dueling Banjo Skeletons Halloween Decorations picture


Full Size 1940s Willard BANJO Clock made by CHELSEA Clock W/Key WORKS Rare
$
Full Size 1940s Willard BANJO Clock made by CHELSEA Clock W/Key WORKS Rare picture


Animated Dueling Banjo Skeletons
$
 Animated Dueling Banjo Skeletons picture


Vintage Springfield Syroco Banjo Style Barometer Thermometer Humidity
$
Vintage Springfield Syroco Banjo Style Barometer Thermometer Humidity picture


Animated Dueling Banjo Skeletons Halloween Decorations
$
Animated Dueling Banjo Skeletons Halloween Decorations picture


World War I Commemorative Banjo
$
World War I Commemorative Banjo picture


Antique Plated Brass Waverly Banjo Key Wrench
$
Antique Plated Brass  Waverly Banjo  Key Wrench picture


Ford Truck MAGNET - Bear Banjo Ratfink classic Rat Fink Hot Rod Race vintage
$
Ford Truck MAGNET - Bear Banjo Ratfink classic Rat Fink Hot Rod Race vintage picture