Your One-Stop Source For
Music Lyrics
Bass and Guitar Tabs
and More...
Music Lyrics Bass and Guitar Tabs

 

The Linkin Park Guitar Tabs Are Below

Learn To Read Tab
Chords Handbook
Corrections & Additions
Get Official Tab
Linkin Park tabs @ 911Tabs

Tuning: Db Ab Db Gb Bb Eb

 

Guitar 1: This is played by sliding up and down the neck of the guitar after hitting

1st note

 

Eb------------------------------------------|

Bb----5----7-8---12-10---12-13-12-----------|

Gb------------------------------------------| x6

Db------------------------------------------|

Ab------------------------------------------|

Db------------------------------------------|

 

Guitar 2: Plays after Guitar 1 plays twice

 

Eb---------------------------|

Bb---------------------------|

Gb---------------------------|

Db-----2-2-2-2-2-2-2---------| x4

Ab-----2-2-2-2-2-2-2---------|

Db-----2-2-2-2-2-2-2---------|

 

Eb----------------------------------------------------|

Bb----------------------------------------------------|

Gb----------------------------------------------------|

Db-----2-2-2-2-2-2-2---2-2-2-2---2-2-2-2-2-2-2-2------| x4

Ab-----2-2-2-2-2-2-2---2-2-2-2---2-2-2-2-2-2-2-2------|

Db-----2-2-2-2-2-2-2---2-2-2-2---2-2-2-2-2-2-2-2------|

x x x x x x x x x x x x

 

Both Guitars:

 

Eb----------------------------------------------------------|

Bb----------------------------------------------------------|

Gb----------------------------------------------------------|

Db----5-5-5-5-5-5--4-4-4-4-4-4--2-2-2-2-2-2-2-2-2-2-2-2-----| x3

Ab----3-3-3-3-3-3--2-2-2-2-2-2--2-2-2-2-2-2-2-2-2-2-2-2-----|

Db------------------------------2-2-2-2-2-2-2-2-2-2-2-2-----|

 

Eb----------------------------------------------------------|

Bb----------------------------------------------------------|

Gb----------------------------------------------------------|

Db----5-5-5-5-5-5-5-5-5-5-5-5--4-4-4-4-4-4--1-1-1-1-1-1-----|

Ab----5-5-5-5-5-5-5-5-5-5-5-5--2-2-2-2-2-2--1-1-1-1-1-1-----|

Db----5-5-5-5-5-5-5-5-5-5-5-5---------------1-1-1-1-1-1-----|

 

Eb----------------------------------------------------|

Bb----------------------------------------------------|

Gb----------------------------------------------------|

Db-----2-2-2-2-2-2-2---2-2-2-2---2-2-2-2-2-2-2-2------| x2

Ab-----2-2-2-2-2-2-2---2-2-2-2---2-2-2-2-2-2-2-2------|

Db-----2-2-2-2-2-2-2---2-2-2-2---2-2-2-2-2-2-2-2------|

 

 

Verse:

 

Guitar 1: Sliding after hitting 1st note

 

Eb------------------------------------------|

Bb----5----7-8---12-10---12-13-12-----------|

Gb------------------------------------------| x2

Db------------------------------------------|

Ab------------------------------------------|

Db------------------------------------------|

 

Guitar 2:

 

Eb----------------------------------------------------|

Bb----------------------------------------------------|

Gb----------------------------------------------------|

Db-----2-2-2-2-2-2-2---2-2-2-2---2-2-2-2-2-2-2-2------| x4

Ab-----2-2-2-2-2-2-2---2-2-2-2---2-2-2-2-2-2-2-2------|

Db-----2-2-2-2-2-2-2---2-2-2-2---2-2-2-2-2-2-2-2------|

x x x x x x x x x x x x x x x x x x x

 

Eb----------------------------------------------------|

Bb----------------------------------------------------|

Gb----------------------------------------------------|

Db-----2-2-2-2-2-2-2---2-2-2-2---2-2-2-2-2-2-2-2------|

Ab-----2-2-2-2-2-2-2---2-2-2-2---2-2-2-2-2-2-2-2------|

Db-----2-2-2-2-2-2-2---2-2-2-2---2-2-2-2-2-2-2-2------|

 

Eb----------------------------------------------------|

Bb----------------------------------------------------|

Gb----------------------------------------------------|

Db-----2-2-2-2-2-2-2---2-2-2-2---2-2-2-2--------------|

Ab-----2-2-2-2-2-2-2---2-2-2-2---2-2-2-2--------------|

Db-----2-2-2-2-2-2-2---2-2-2-2---2-2-2-2--------------|

 

 

Chorus: Both Guitars

 

Eb----------------------------------------------------------|

Bb----------------------------------------------------------|

Gb----------------------------------------------------------|

Db----5-5-5-5-5-5--4-4-4-4-4-4--2-2-2-2-2-2-2-2-2-2-2-2-----| x3

Ab----3-3-3-3-3-3--2-2-2-2-2-2--2-2-2-2-2-2-2-2-2-2-2-2-----|

Db------------------------------2-2-2-2-2-2-2-2-2-2-2-2-----|

 

Eb----------------------------------------------------------|

Bb----------------------------------------------------------|

Gb----------------------------------------------------------|

Db----5-5-5-5-5-5-5-5-5-5-5-5--4-4-4-4-4-4--1-1-1-1-1-1-----|

Ab----5-5-5-5-5-5-5-5-5-5-5-5--2-2-2-2-2-2--1-1-1-1-1-1-----|

Db----5-5-5-5-5-5-5-5-5-5-5-5---------------1-1-1-1-1-1-----|

 

Eb----------------------------------------------------|

Bb----------------------------------------------------|

Gb----------------------------------------------------|

Db-----2-2-2-2-2-2-2---2-2-2-2---2-2-2-2-2-2-2-2------|

Ab-----2-2-2-2-2-2-2---2-2-2-2---2-2-2-2-2-2-2-2------|

Db-----2-2-2-2-2-2-2---2-2-2-2---2-2-2-2-2-2-2-2------|

 

 

Verse:

 

Guitar 1: Sliding after hitting 1st note

 

Eb------------------------------------------|

Bb----5----7-8---12-10---12-13-12-----------|

Gb------------------------------------------| x2

Db------------------------------------------|

Ab------------------------------------------|

Db------------------------------------------|

 

Guitar 2:

 

Eb----------------------------------------------------|

Bb----------------------------------------------------|

Gb----------------------------------------------------|

Db-----2-2-2-2-2-2-2---2-2-2-2---2-2-2-2-2-2-2-2------| x4

Ab-----2-2-2-2-2-2-2---2-2-2-2---2-2-2-2-2-2-2-2------|

Db-----2-2-2-2-2-2-2---2-2-2-2---2-2-2-2-2-2-2-2------|

x x x x x x x x x x x x x x x x x x x

 

Eb----------------------------------------------------|

Bb----------------------------------------------------|

Gb----------------------------------------------------|

Db-----2-2-2-2-2-2-2---2-2-2-2---2-2-2-2-2-2-2-2------|

Ab-----2-2-2-2-2-2-2---2-2-2-2---2-2-2-2-2-2-2-2------|

Db-----2-2-2-2-2-2-2---2-2-2-2---2-2-2-2-2-2-2-2------|

 

Eb----------------------------------------------------|

Bb----------------------------------------------------|

Gb----------------------------------------------------|

Db-----2-2-2-2-2-2-2---2-2-2-2---2-2-2-2--------------|

Ab-----2-2-2-2-2-2-2---2-2-2-2---2-2-2-2--------------|

Db-----2-2-2-2-2-2-2---2-2-2-2---2-2-2-2--------------|

 

 

Chorus: Both Guitars

 

Eb----------------------------------------------------------|

Bb----------------------------------------------------------|

Gb----------------------------------------------------------|

Db----5-5-5-5-5-5--4-4-4-4-4-4--2-2-2-2-2-2-2-2-2-2-2-2-----| x3

Ab----3-3-3-3-3-3--2-2-2-2-2-2--2-2-2-2-2-2-2-2-2-2-2-2-----|

Db------------------------------2-2-2-2-2-2-2-2-2-2-2-2-----|

 

Eb----------------------------------------------------------|

Bb----------------------------------------------------------|

Gb----------------------------------------------------------|

Db----5-5-5-5-5-5-5-5-5-5-5-5--4-4-4-4-4-4--1-1-1-1-1-1-----|

Ab----5-5-5-5-5-5-5-5-5-5-5-5--2-2-2-2-2-2--1-1-1-1-1-1-----|

Db----5-5-5-5-5-5-5-5-5-5-5-5---------------1-1-1-1-1-1-----|

 

 

Screaming Part: Both Guitars

 

 

Eb---------------------------------------|

Bb---------------------------------------|

Gb---------------------------------------|

Db----0--2--1--4--3--1--0--6-------------| x3

Ab----0--2--1--4--3--1--0--6-------------|

Db----0--2--1--4--3--1--0--6-------------|

x x x x x x x x

 

Eb---------------------------------------|

Bb---------------------------------------|

Gb---------------------------------------|

Db----0--2--1--4--3--1--0--3-------------|

Ab----0--2--1--4--3--1--0--3-------------|

Db----0--2--1--4--3--1--0--3-------------|

x x x x x x x x

 

 

Breakdown:

 

Guitar 1: Sliding after hitting 1st note

 

Eb------------------------------------------|

Bb----5----7-8---12-10---12-13-12-----------|

Gb------------------------------------------| x3

Db------------------------------------------|

Ab------------------------------------------|

Db------------------------------------------|

 

Guitar 2:

 

Eb---------------------------|

Bb---------------------------|

Gb---------------------------|

Db-----2-2-2-2-2-2-2---------| x6

Ab-----2-2-2-2-2-2-2---------|

Db-----2-2-2-2-2-2-2---------|

 

 

Chorus: Both Guitars

 

Eb----------------------------------------------------------|

Bb----------------------------------------------------------|

Gb----------------------------------------------------------|

Db----5-5-5-5-5-5--4-4-4-4-4-4--2-2-2-2-2-2-2-2-2-2-2-2-----| x3

Ab----3-3-3-3-3-3--2-2-2-2-2-2--2-2-2-2-2-2-2-2-2-2-2-2-----|

Db------------------------------2-2-2-2-2-2-2-2-2-2-2-2-----|

 

Eb----------------------------------------------------------|

Bb----------------------------------------------------------|

Gb----------------------------------------------------------|

Db----5-5-5-5-5-5-5-5-5-5-5-5--4-4-4-4-4-4-4-4-4-4-4-4------|

Ab----5-5-5-5-5-5-5-5-5-5-5-5--2-2-2-2-2-2-2-2-2-2-2-2------|

Db----5-5-5-5-5-5-5-5-5-5-5-5-------------------------------|

 

Then the guitars play separately

 

Guitar 1: Sliding after hitting 1st note

 

Eb------------------------------------------|

Bb----5----7-8---12-10---12-13-12-----------|

Gb------------------------------------------| x2

Db------------------------------------------|

Ab------------------------------------------|

Db------------------------------------------|

 

Guitar 2:

 

Eb----------------------------------------------------------|

Bb----------------------------------------------------------|

Gb----------------------------------------------------------|

Db----5-5-5-5-5-5--4-4-4-4-4-4--2-2-2-2-2-2-2-2-2-2-2-2-----| x3

Ab----3-3-3-3-3-3--2-2-2-2-2-2--2-2-2-2-2-2-2-2-2-2-2-2-----|

Db------------------------------2-2-2-2-2-2-2-2-2-2-2-2-----|

 

Eb----------------------------------------------------------|

Bb----------------------------------------------------------|

Gb----------------------------------------------------------|

Db----5-5-5-5-5-5-5-5-5-5-5-5--4-4-4-4-4-4--1-1-1-1-1-1-----|

Ab----5-5-5-5-5-5-5-5-5-5-5-5--2-2-2-2-2-2--1-1-1-1-1-1-----|

Db----5-5-5-5-5-5-5-5-5-5-5-5---------------1-1-1-1-1-1-----|

 

 

Ending:

 

Guitar 1: Sliding after hitting 1st note

 

Eb------------------------------------------|

Bb----5----7-8---12-10---12-13-12-----------|

Gb------------------------------------------|

Db------------------------------------------|

Ab------------------------------------------|

Db------------------------------------------|

 

Guitar 2:

 

Eb----------------------------------------------------|

Bb----------------------------------------------------|

Gb----------------------------------------------------|

Db-----2-2-2-2-2-2-2---2-2-2-2---2-2-2-2-2-2-2-2------|

Ab-----2-2-2-2-2-2-2---2-2-2-2---2-2-2-2-2-2-2-2------|

Db-----2-2-2-2-2-2-2---2-2-2-2---2-2-2-2-2-2-2-2------|

 

Eb----------------------------------------------------|

Bb----------------------------------------------------|

Gb----------------------------------------------------|

Db-----2-2-2-2-2-2-2---2-2-2-2---2-2-2-2--------------|

Ab-----2-2-2-2-2-2-2---2-2-2-2---2-2-2-2--------------|

Db-----2-2-2-2-2-2-2---2-2-2-2---2-2-2-2--------------|

 

Return to my Linkin Park Guitar Tabs page

The Guitar Tablature is Copyright its respective owners.

Sign Up For My Newsletter
Subscribe | Unsubscribe

Site Map | Disclaimer | Privacy Policy | Media Kit | Submissions/Corrections

Website © 2000-2014 mattsmusicpage.com. All rights reserved.

Legal & DMCA: Matt's Music Page has been providing lyrics and tabs in a legal way, paying royalties each year to a few organizations. Then, all lyrics and tabs were removed from the site. Now, there's a new owner to the site, which purchased it August 26, 2014, and he is in negotiation to obtain licensing from BMI at the moment. If you have a specific DMCA request -- please do not hesitate to contact me via the contact button on top. I will do my very best to keep this site fully legal.

Get our toolbar!