Your One-Stop Source For
Music Lyrics
Bass and Guitar Tabs
and More...
>Music Lyrics Bass and Guitar Tabs

 

The Linkin Park Bass Tabs Are Below

Learn To Read Tab
Chords Handbook
Corrections & Additions
Get Official Tab
Linkin Park tabs @ 911Tabs

New Divide – Linkin Park

-------------------------------------------------------------------------------

 

Tabbed By : hahakid23

e-mail: fire_stillburn@hotmail.com

 

Tuning: Standard

(Intro) [ It’s “Eleven” Not a Continuous “One” ]

G|-------------------------------------------------------------|

D|-------------------------------------8888888—1010------------|

A|-8888888—--11111111111111---6666666--------------------------|x2

E|-------------------------------------------------------------|

(Verse)

G|---------------------------------------|

D|---------------------------------------|

A|---8-------11-------6------1-----------|x3

E|---------------------------------------|

(Pre Chorus)

G|-----------------------------------|

D|-----------------------------------|

A|-44444444--11111111----------------|

E|-----------------------------------|

(Chorus)

G|--------------------------------------------------------------------------|

D|------------------------8888888-------------------------------------------|

A|-888888888888-6666666------------8888888-11111111111111-666666666666------|

E|--------------------------------------------------------------------------|

 

G|-------------------------------------------------------------------------------|

D|--------------------------------88888888-1010-11111111111111-13131313131313----|

A|-8888888-11111111111111-6666666------------------------------------------------|

E|-------------------------------------------------------------------------------|

 

G|--------------------------------------------------|

D|--------------------------------8888888-1010------|

A|-8888888-11111111111111-6666666-------------------|

E|--------------------------------------------------|

(Verse)

G|---------------------------------------|

D|---------------------------------------|

A|---8-------11-------6------1-----------|x3

E|---------------------------------------|

 

(Pre Chorus)

G|-----------------------------------|

D|-----------------------------------|

A|-44444444--11111111----------------|

E|-----------------------------------|

(Chorus)

G|--------------------------------------------------------------------------|

D|------------------------8888888-------------------------------------------|

A|-888888888888-6666666------------8888888-11111111111111-666666666666--8---|

E|--------------------------------------------------------------------------|

(Bridge)

G|-------------------------------------|

D|-------------------------------------|

A|-------------------------------------|

E|111--1--11--1-111-1--11111-----------|

(Chorus 2)

G|-------------------------------------------------------------|

D|-------------------------------88888888-1010-----------------|

A|8888888-11111111111111-6666666-------------------------------|

E|-------------------------------------------------------------|

 

G|-------------------------------------------------------------------------------------------|

D|-------------------------------88888888-1010-111111111111-1313131313131313-88888888-10-----|

A|8888888-11111111111111-6666666----------------------------------------------------------8--|

E|-------------------------------------------------------------------------------------------|

 

(Chorus 3)

G|-------------------------------------------------------------------------------------|

D|-------------------------------88888888-1010-111111111111-1313131313131313-----------|

A|8888888-11111111111111-6666666-------------------------------------------------------|

E|-------------------------------------------------------------------------------------|

 

G|-------------------------------------------------------------------------------------|

D|-------------------------------88888888-1010-----------------------------------------|

A|8888888-11111111111111-6666666---------------8---------------------------------------|x2

E|-------------------------------------------------------------------------------------|

Return to my Linkin Park Bass Tabs page

The Tablature is Copyright its respective owners.

Sign Up For My Newsletter
Subscribe | Unsubscribe

Site Map | Disclaimer | Privacy Policy | Media Kit | Submissions/Corrections

Website © 2000-2014 mattsmusicpage.com. All rights reserved.

Legal & DMCA: Matt's Music Page has been providing lyrics and tabs in a legal way, paying royalties each year to a few organizations. Then, all lyrics and tabs were removed from the site. Now, there's a new owner to the site, which purchased it August 26, 2014, and he is in negotiation to obtain licensing from BMI at the moment. If you have a specific DMCA request -- please do not hesitate to contact me via the contact button on top. I will do my very best to keep this site fully legal.

Get our toolbar!

 

The Jolly Lumberjacks -Vinyl 45 Record- Terry's Polka / Randy's Waltz
$12.0
The Jolly Lumberjacks -Vinyl 45 Record- Terry's Polka / Randy's Waltz picture


Jimmy Dean -Vinyl 45 Record- Walk on Boy / P.T.109
$12.0
Jimmy Dean -Vinyl 45 Record- Walk on Boy / P.T.109 picture


The Carpenters - 45 Vinyl Record - Sing / Druscilla Penny
$12.0
The Carpenters - 45 Vinyl Record - Sing / Druscilla Penny picture


Roberta Flack- Vinyl 45 Record -When You Smile / Feel Like Makin' Love
$12.0
Roberta Flack- Vinyl 45 Record -When You Smile / Feel Like Makin' Love picture


Ed Ames - Vinyl 45 Record - My Cup Runneth Over / It Seems a Long Long Time
$12.0
Ed Ames - Vinyl 45 Record -  My Cup Runneth Over / It Seems a Long Long Time picture