Your One-Stop Source For
Music Lyrics
Bass and Guitar Tabs
and More...
Music Lyrics Bass and Guitar Tabs

 

The Tabs Are Below

Learn To Read Tab
Chords Handbook
Corrections & Additions
Get Official Tab
Linkin Park tabs @ 911Tabs

Jigga What/Faint

**2 GUITARS**

 

[But I'll be here cuz you're all that i got]

Drum intro to "Faint"

 

Intro/Chorus Guitar 1

Eb|--------------------------------------------------------------------------|

Bb|--------------------------------------------------------------------------|

Gb|7-7-7-7|7-7-7-14-14-12-12-12|12-12-12-14-14-10-10-10|---------------------|

Db|--------------------------------------------------------------------------|

Ab|5-5-5-5|5-5-5-12-12-10-10-10|10-10-10-12-12--8--8--8|---------------------|

Db|--------------------------------------------------------------------------|

Repeat 3x without first bar

(These are 10s, 12s, and 14s)

 

Intro/Chorus Guitar 2

Eb|--------------------------------------------------------------------------|

Bb|--------------------------------------------------------------------------|

Gb|--------------------------------------------------------------------------|

Db|-------|0-0-0-0-0-0-0-0|5-5-5-5-5-5-5-5|8-8-8-8-8-8-8-8|5-5-5-7-7-3-3-3|--|

Ab|-------|0-0-0-0-0-0-0-0|3-3-3-3-3-3-3-3|8-8-8-8-8-8-8-8|5-5-5-7-7-3-3-3|--|

Db|-------|0-0-0-0-0-0-0-0|3-3-3-3-3-3-3-3|8-8-8-8-8-8-8-8|5-5-5-7-7-3-3-3|--|

Repeat one time without first bar rest

 

Verse (Jay-Z) Guitar 1 (Guitar 2 rest)

Eb|--------------------------------------------------------------------------|

Bb|--------------------------------------------------------------------------|

Gb|--------------------------------------------------------------------------|

Db|0-0|----------|-----------------------------------------------------------|

Ab|0-0|----------|-----------------------------------------------------------|

Db|0-0|3-bar-rest|-----------------------------------------------------------|

Repeat 3 times

 

Verse (Linkin Park) Guitar 1 (Guitar 2 rest)

Eb|--------------------------------------------------------------------------|

Bb|--------------------------------------------------------------------------|

Gb|--------------------------------------------------------------------------|

Db|0-0|----------|0-0|----------|0-0|----------|8-8----|10-10----|-----------|

Ab|0-0|----------|0-0|----------|0-0|----------|8-8----|10-10----|-----------|

Db|0-0|3-bar-rest|0-0|3-bar-rest|0-0|1-bar rest|8-8----|10-10----|-----------|

(10s, not 1 & 0)

 

Guitars 1 & 2 Repeat Chorus (repeat last chord as a full bar when done)

 

Bridge Guitar 1

Eb|--------------------------------------------------------------------------|

Bb|--------------------------------------------------------------------------|

Gb|--------------------------------------------------------------------------|

Db|0-7-3-2-3-2|000-7-3-2-3-2|------------------------------------------------|

Ab|0-7-3-2-3-2|000-7-3-2-3-2|------------------------------------------------|

Db|0-7-3-2-3-2|000-7-3-2-3-2|------------------------------------------------|

Repeat 3 times

 

Bridge Guitar 2

Eb|--------------------------------------------------------------------------|

Bb|--------------------------------------------------------------------------|

Gb|--------------------------------------------------------------------------|

Db|----------5*|------------|------------------------------------------------|

Ab|--------------------------------------------------------------------------|

Db|--------------------------------------------------------------------------|

Repeat 3 times

 

Guitars 1 & 2 Repeat Chorus twice (w/o first bar)

 

Outro Guitar 1

Eb|--------------------------------------------------------------------------|

Bb|--------------------------------------------------------------------------|

Gb|10-10-10-10-10-8-8-8|-----------------------------------------------------|

Db|--------------------------------------------------------------------------|

Ab|-8--8--8--8--8-6-6-6|-----------------------------------------------------|

Db|--------------------------------------------------------------------------|

 

Outro Guitar 2

Eb|--------------------------------------------------------------------------|

Bb|--------------------------------------------------------------------------|

Gb|--------------------------------------------------------------------------|

Db|3-3-3-3-3-1-1-1|----------------------------------------------------------|

Ab|3-3-3-3-3-1-1-1|----------------------------------------------------------|

Db|3-3-3-3-3-1-1-1|----------------------------------------------------------|

END Jigga What/Faint

 

Return to my Linkin Park tabs page

The Tablature is Copyright its respective owners.

Sign Up For My Newsletter
Subscribe | Unsubscribe

Site Map | Disclaimer | Privacy Policy | Media Kit | Submissions/Corrections

Website © 2000-2014 mattsmusicpage.com. All rights reserved.

Legal & DMCA: Matt's Music Page has been providing lyrics and tabs in a legal way, paying royalties each year to a few organizations. Then, all lyrics and tabs were removed from the site. Now, there's a new owner to the site, which purchased it August 26, 2014, and he is in negotiation to obtain licensing from BMI at the moment. If you have a specific DMCA request -- please do not hesitate to contact me via the contact button on top. I will do my very best to keep this site fully legal.

Get our toolbar!