Your One-Stop Source For
Music Lyrics
Bass and Guitar Tabs
and More...
>Music Lyrics Bass and Guitar Tabs

 

The Linkin Park Bass Tabs Are Below

Learn To Read Tab
Chords Handbook
Corrections & Additions
Get Official Tab
Linkin Park tabs @ 911Tabs

Ok so I got this tab originally from deadhand329 but it was in Drop D tuning, and I

like playing in Drop D, with my bass I find my strings slap the frets too much. Anyway, so I

it to Standard Tuning. I think the conversion is correct. So here it is in Standard: Thanks.

 

 

Intro: (when the drums come in)

G|---------------------------------------------------------------|

D|---------------------------------------------------------------|

A|---------------------------------------------------------------|

E|-0-00-00-000-0010-00-00-000-0010-00-00-000-0010-00-00-xx6-xx1--|

 

Verse:

G|---------------------------------------------------------------|

D|---------------------------------------------------------------|

A|-------------------------------5-55-55-555-55------------------| x2

E|-0-00-00-000-0010-00-00-000-001--------------10-00-00-xx6-xx1--|

 

 

Prechorus:

G|--------------------|

D|--------------------|

A|--------------------|

E|--3333333333333333--|

 

Chorus:

G|-----------------------------------|

D|-----------------------------------|

A|-----------------5555555500000000--|x3

E|-0000000033333333------------------|

 

G|---------------------------------------------------------------|

D|---------------------------------------------------------------|

A|-----------------5555555555555555------------------------------|

E|-0000000033333333----------------55555555-xx6-xx1--------------|

 

Verse:

G|---------------------------------------------------------------|

D|---------------------------------------------------------------|

A|-------------------------------5-55-55-555-55------------------| x2

E|-0-00-00-000-0010-00-00-000-001--------------10-00-00-xx6-xx1--|

 

Prechorus:

G|--------------------|

D|--------------------|

A|--------------------|

E|--3333333333333333--|

 

Chorus:

G|-----------------------------------|

D|-----------------------------------|

A|-----------------5555555500000000--|x3

E|-0000000033333333------------------|

 

G|---------------------------------------------------------------|

D|---------------------------------------------------------------|

A|-----------------5555555555555555------------------------------|

E|-0000000033333333----------------55555555-xx6-xx1--------------|

 

Bridge: (Guitar alone first)

G|------------------------------------------------------------------|

D|------------------------------------------------------------------|

A|-5-6---5-----5-----5-6---5------5-6---5-----5-----5-6-------------|x2

E|-----0---2-1---4-3-----0---0~-------0---2-1---4-3-----0-2-1-0-----|

 

G|---------------------------------------------------------------|

D|---------------------------------------------------------------|

A|-5-4---5-----5-----5-6---5---5---5-6---5-----------------------|

E|-----0---2-1---4-3-----0---0---5-----0---2-1-2-0---------------|

 

Interlude: (Guitar plays first)

G|---------------------------------------------------------------|

D|---------------------------------------------------------------|

A|---------------------------------------------------------------|

E|-0-00-00-000-0010-00-00-000-0010-00-00-000-0010----------------|

 

Chorus:

G|-----------------------------------|

D|-----------------------------------|

A|-----------------5555555500000000--|x3

E|-0000000033333333------------------|

 

G|---------------------------------------------------------------|

D|---------------------------------------------------------------|

A|-----------------5555555555555555------------------------------|

E|-0000000033333333----------------55555555-xx6-xx1-0------------|

Return to my Linkin Park Bass Tabs page

The Tablature is Copyright its respective owners.

Sign Up For My Newsletter
Subscribe | Unsubscribe

Site Map | Disclaimer | Privacy Policy | Media Kit | Submissions/Corrections

Website © 2000-2014 mattsmusicpage.com. All rights reserved.

Legal & DMCA: Matt's Music Page has been providing lyrics and tabs in a legal way, paying royalties each year to a few organizations. Then, all lyrics and tabs were removed from the site. Now, there's a new owner to the site, which purchased it August 26, 2014, and he is in negotiation to obtain licensing from BMI at the moment. If you have a specific DMCA request -- please do not hesitate to contact me via the contact button on top. I will do my very best to keep this site fully legal.

Get our toolbar!

 

Hard Rock Las Vegas Lucky Penny Guitar Key Chain
$0.99
Hard Rock Las Vegas Lucky Penny Guitar Key Chain picture


Miniature GUITAR CELLO VIOLIN Blue Glass Bottle WHEATON REPRODUCTION TAIWAN 3"
$3.0
Miniature GUITAR CELLO VIOLIN Blue Glass Bottle WHEATON REPRODUCTION TAIWAN 3


Vintage Def Leppard Guitar Hat Lapel Pinback #12526
$19.99
Vintage Def Leppard Guitar Hat Lapel Pinback #12526 picture


FREE Music Note Treble Clef Keyring Metal Keychain Guitar Novelty Keyfobs Gift
$0.01
FREE Music Note Treble Clef Keyring Metal Keychain Guitar Novelty Keyfobs Gift picture


ZIPPO LIGHTER GUITAR STINGS USED GOOD SHAPE
$3.99
ZIPPO LIGHTER  GUITAR STINGS USED GOOD SHAPE picture