Your One-Stop Source For
Music Lyrics
Bass and Guitar Tabs
and More...
Music Lyrics Bass and Guitar Tabs

 

The Tabs Are Below

Learn To Read Tab
Chords Handbook
Corrections & Additions
Get Official Tab
Linkin Park tabs @ 911Tabs

Figure.09 – Linkin Park

-----------------------------------------------------------------------

 

Tabbed by: Grea$e

Email: l33t_grease@hotmail.com

 

Tuning: Drop C

 

Intro:

D|---------------------------------------------------|

A|---------------------------------------------------|

F|---------------------------------------------------|

C|-1-4--1-4--1-4---1h2r1h2r1--1-4--1-4--1-4--12222---|

G|-------------------------------------------12222---|

C|--1----1----1----------------1----1----1---12222---|

 

Intro B:

D|---------------------------|

A|---------------------------|

F|---------------------------| x2

C|-11--4--11--4--11--4--2222-|

G|-11--2--11--2--11--2--2222-|

C|-10-----10-----10-----2222-|

 

Verse:

D|------------------|

A|------------------|

F|------------------| x2

C|-11--11--11--2222-|

G|-11--11--11--2222-|

C|-10--10--10--2222-|

 

Verse B:

D|---------------------------|

A|---------------------------|

F|---------------------------| x2

C|-11--4--11--4--11--4--2222-|

G|-11--2--11--2--11--2--2222-|

C|-10-----10-----10-----2222-|

 

Pre-Chorus

D|---------------------|

A|---------------------|

F|---------------------|

C|-11--4--11--4--11--4-|

G|-11--2--11--2--11--2-|

C|-11-----11-----11----|

 

Chorus:

D|--------------------| D|--------------------|

A|--------------------| A|--------------------|

F|--------------------| x3 F|--------------------| x1

C|-11--44--44--66--88-| C|-11--44--44--66--22-|

G|-11--22--44--66--88-| G|-11--22--44--66--22-|

C|-11------44--66--88-| C|-11------44--66--22-|

 

 

D|-----------------------------|

A|-----------------------------|

F|-----------------------------|

C|-21-xxx-11-4-xxx-21-xxx-11-4-| x4

G|-21-xxx-11-4-xxx-21-xxx-11-4-|

C|-21-xxx-10-4-xxx-21-xxx-10-4-|

 

Intro

Intro B

Verse

Verse B

Pre-Chorus

Chorus

Verse B

Verse

Verse B

Pre-Chorus

Chorus

Intro

Bridge

Chorus

 

Try that, it’s only a guide remember. Have fun, feel free to email me with comments. Laters.

 

| / slide up

| \ slide down

| h hammer-on

| p pull-off

| ~ vibrato

| + harmonic

| x Mute note

 

 

Return to my Linkin Park tabs page

The Tablature is Copyright its respective owners.

Sign Up For My Newsletter
Subscribe | Unsubscribe

Site Map | Disclaimer | Privacy Policy | Media Kit | Submissions/Corrections

Website © 2000-2014 mattsmusicpage.com. All rights reserved.

Legal & DMCA: Matt's Music Page has been providing lyrics and tabs in a legal way, paying royalties each year to a few organizations. Then, all lyrics and tabs were removed from the site. Now, there's a new owner to the site, which purchased it August 26, 2014, and he is in negotiation to obtain licensing from BMI at the moment. If you have a specific DMCA request -- please do not hesitate to contact me via the contact button on top. I will do my very best to keep this site fully legal.

Get our toolbar!

 

VINTAGE SORRENTO MUSIC JEWELRY BOX
$45.0
VINTAGE SORRENTO MUSIC JEWELRY BOX picture


VINTAGE LACQUERED MUSIC BOX JAPAN
$25.99
VINTAGE LACQUERED MUSIC BOX JAPAN picture


Vintage Kehlsteinhaus Bavaria Germany Colorscope Cow Bell View Master Music Box
$8.99
Vintage Kehlsteinhaus Bavaria Germany Colorscope Cow Bell View Master Music Box picture


VINTAGE SCHMIDT Signed Collectible Musical Turning Clown
$9.99
VINTAGE  SCHMIDT Signed Collectible Musical Turning Clown picture


Vintage - Linen - Postcard - Stage - Radio City Music Hall - New York City
$3.75
Vintage - Linen - Postcard - Stage - Radio City Music Hall - New York City   picture