Your One-Stop Source For
Music Lyrics
Bass and Guitar Tabs
and More...
Music Lyrics Bass and Guitar Tabs

 

The Tabs Are Below

Learn To Read Tab
Chords Handbook
Corrections & Additions
Get Official Tab
Linkin Park tabs @ 911Tabs

Artist: Linkin Park

Album:Meteora

Song:Easier to Run

Tuning:Drop D 1/2 step

 

This is the best i could do. The intro/verse isn't 100% correct but i hope

this inspires better tabs for this song.

 

Intro/Verse

x4

 

Eb-----------12*----------12*---

Bb------------------------------

Gb----------------------------7*

Db-------7*---------------------

Ab-5*-7*------------5*-7*-------

Db------------------------------

 

 

 

Chorus

x2

 

First Guitar

 

Eb--------------------------------

Bb--------------------------------

Gb-8-8-8-8-8-8-8-8-8-8-8-8-8-8-8-8

Db-x-x-x-x-x-x-x-x-x-x-x-x-x-x-x-x

Ab-6-6-6-6-6-6-6-6-6-6-6-6-6-6-6-6

Db--------------------------------

|1st time|2nd time

Eb-------------------------|--------|-------

Bb-------------------------|--------|-------

Gb-8-8-8-8-8-8-8-8-6-6-6-6-|11111111|6-6-6-6

Db-x-x-x-x-x-x-x-x-x-x-x-x-|x-x-x-x-|x-x-x-x

Ab-6-6-6-6-6-6-6-6-4-4-4-4-|9-9-9-9-|4-4-4-4

Db-------------------------|--------|-------

 

Let ring at the end of the chorus

 

Eb---

Bb---

Gb-8-

Db-x-

Ab-6-

Db---

 

 

 

Second Guitar (This is just an example of a rythm that works, use any type of rythm you like.)

 

Eb--------------------------------

Bb--------------------------------

Gb--------------------------------

Db-2---2-2-2---2-2-5---5-5-5---5-5

Ab-2---2-2-2---2-2-5---5-5-5---5-5

Db-2---2-2-2---2-2-5---5-5-5---5-5

 

Eb--------------------------------

Bb--------------------------------

Gb--------------------------------

Db-7---7-7-7---7-7-4---4-4-4---4-4

Ab-7---7-7-7---7-7-4---4-4-4---4-4

Db-7---7-7-7---7-7-4---4-4-4---4-4

 

 

 

Bridge

 

First Guitar

 

Eb--------------------------------

Bb--------------------------------

Gb-8-8-8-8-8-8-8-8-8-8-8-8-8-8-8-8

Db-x-x-x-x-x-x-x-x-x-x-x-x-x-x-x-x

Ab-6-6-6-6-6-6-6-6-6-6-6-6-6-6-6-6

Db--------------------------------

 

Eb--------------------------------

Bb--------------------------------

Gb-8-8-8-8-8-8-8-8-6-6-6-6-6-6-6-6

Db-x-x-x-x-x-x-x-x-x-x-x-x-x-x-x-x

Ab-6-6-6-6-6-6-6-6-4-4-4-4-4-4-4-4

Db--------------------------------

 

Eb--------------------------------

Bb--------------------------------

Gb-8-8-8-8-8-8-8-8-8-8-8-8-8-8-8-8

Db-x-x-x-x-x-x-x-x-x-x-x-x-x-x-x-x

Ab-6-6-6-6-6-6-6-6-6-6-6-6-6-6-6-6

Db--------------------------------

 

Eb--------------------

Bb--------------------

Gb-8-8-8-8-8-8-8-8-6-6

Db-x-x-x-x-x-x-x-x-6-6

Ab-6-6-6-6-6-6-6-6-6-6

Db--------------------

 

 

 

Second Guitar

 

Eb--------------------------------

Bb--------------------------------

Gb--------------------------------

Db-2---2-2-2---2-2-5---5-5-5---5-5

Ab-2---2-2-2---2-2-5---5-5-5---5-5

Db-2---2-2-2---2-2-5---5-5-5---5-5

 

Eb--------------------------------

Bb--------------------------------

Gb--------------------------------

Db-7---7-7-7---7-7-4---4-4-4---4-4

Ab-7---7-7-7---7-7-4---4-4-4---4-4

Db-7---7-7-7---7-7-4---4-4-4---4-4

 

Eb--------------------------------

Bb--------------------------------

Gb--------------------------------

Db-2---2-2-2---2-2-5---5-5-5---5-5

Ab-2---2-2-2---2-2-5---5-5-5---5-5

Db-2---2-2-2---2-2-5---5-5-5---5-5

 

Eb--------------------

Bb--------------------

Gb--------------------

Db-7---7-7-7---7-7-7-7

Ab-7---7-7-7---7-7-7-7

Db-7---7-7-7---7-7-7-7

 

 

 

Outro

 

Eb---------------------------------

Bb---------------------------------

Gb-11111111111111111111111111111111

Db-x-x-x-x-x-x-x-x-x-x-x-x-x-x-x-x-

Ab-9-9-9-9-9-9-9-9-9-9-9-9-9-9-9-9-

Db---------------------------------

 

There's all the pieces for ya. Have fun!

Return to my Linkin Park tabs page

The Tablature is Copyright its respective owners.

Sign Up For My Newsletter
Subscribe | Unsubscribe

Site Map | Disclaimer | Privacy Policy | Media Kit | Submissions/Corrections

Website © 2000-2014 mattsmusicpage.com. All rights reserved.

Legal & DMCA: Matt's Music Page has been providing lyrics and tabs in a legal way, paying royalties each year to a few organizations. Then, all lyrics and tabs were removed from the site. Now, there's a new owner to the site, which purchased it August 26, 2014, and he is in negotiation to obtain licensing from BMI at the moment. If you have a specific DMCA request -- please do not hesitate to contact me via the contact button on top. I will do my very best to keep this site fully legal.

Get our toolbar!

 

Hard Rock Pin Las Vegas 4th of july red white and blue guitar
$5.0
Hard Rock Pin Las Vegas 4th of july red white and blue guitar picture


Hard Rock Pin Hollywood Fl Bell Girl with dice luggage and guitar
$5.0
Hard Rock Pin Hollywood Fl Bell Girl with dice luggage and guitar picture


Hard Rock Pin Las Vegas King of Clubs Guitar rare only 3 lines of info on back
$5.0
Hard Rock Pin Las Vegas King of Clubs Guitar rare only 3 lines of info on back picture


Hard Rock Pin Edmonton guitar pin
$5.0
Hard Rock Pin Edmonton guitar pin picture


Lladro Guitar Boy #4614 - Beautiful Piece of Lladro
$109.0
Lladro Guitar Boy #4614 - Beautiful Piece of Lladro picture