Your One-Stop Source For
Music Lyrics
Bass and Guitar Tabs
and More...
Music Lyrics Bass and Guitar Tabs

 

The Tabs Are Below

Learn To Read Tab
Chords Handbook
Corrections & Additions
Get Official Tab
Linkin Park tabs @ 911Tabs

Tabbed By: Vince.L

Hoobastank@37.com

 

Band: Linkin Park

Song: Don't Stay

Album: Meteora

 

Tabbed in standard tunning

 

Whole song is in distortion

 

Intro/Verse 1

E-----------------|(1st 4X's Palm Mute)

B-----------------|(2nd 4X's not Palm Muted)

D-----------------|Then Repeat

G------4---222-5-4|on the last part of the verse

A--222-4-5-222-5-4|play the bottom set of 2s then

E--222---5--------|play the verse break

 

Verse Break

E-----------------|

B-----------------|

D-----------------|

G--555555555------|

A--333333333------|

E--333333333------|

 

Chorus

E---------------------------|

B---------------------------|

D------6-7-9-4-4-6----------|

G--4-4-4-5-7-2-2-4-7-5-4----|

A--2-2-4-5-7-2-2-4-5-3-2----|

E--2-2-------------5-3-2----|

 

Verse 2

E-----------------|(1st 4X's Palm Mute)

B-----------------|(2nd 4X's not Palm Muted)

D-----------------|

G------4---222-5-4|

A--222-4-5-222-5-4|

E--222---5--------|

 

Bridge

E-----------------|

B------------10-13|

D------------x--x-|

G--44-55-4---7--10|

A--22-33-2--------|

E--22-33-2--------|

 

Palm Mute

E-----------------|

B-----------------|

D-----------------|

G--555555555------|

A--333333333------|

E--333333333------|

 

Chorus

E---------------------------|

B---------------------------|

D------6-7-9-4-4-6----------|

G--4-4-4-5-7-2-2-4-7-5-4----|

A--2-2-4-5-7-2-2-4-5-3-2----|

E--2-2-------------5-3-2----|

 

Outro

E-----------------|

B-----------------|

D-----------------|

G--555555555------|

A--333333333------|

E--333333333------|

Return to my Linkin Park tabs page

The Tablature is Copyright its respective owners.

Sign Up For My Newsletter
Subscribe | Unsubscribe

Site Map | Disclaimer | Privacy Policy | Media Kit | Submissions/Corrections

Website © 2000-2014 mattsmusicpage.com. All rights reserved.

Legal & DMCA: Matt's Music Page has been providing lyrics and tabs in a legal way, paying royalties each year to a few organizations. Then, all lyrics and tabs were removed from the site. Now, there's a new owner to the site, which purchased it August 26, 2014, and he is in negotiation to obtain licensing from BMI at the moment. If you have a specific DMCA request -- please do not hesitate to contact me via the contact button on top. I will do my very best to keep this site fully legal.

Get our toolbar!